  0
SECTION
  2
HEADER
  9
$ACADVER
  1
AC1015
  9
$ACADMAINTVER
 70
     6
  9
$DWGCODEPAGE
  3
ANSI_1252
  9
$INSBASE
 10
0.0
 20
0.0
 30
0.0
  9
$EXTMIN
 10
0.0
 20
0.0
 30
0.0
  9
$EXTMAX
 10
4000.0
 20
4000.0
 30
0.0
  9
$LIMMIN
 10
0.0
 20
0.0
  9
$LIMMAX
 10
4000.0
 20
4000.0
  9
$ORTHOMODE
 70
     0
  9
$REGENMODE
 70
     1
  9
$FILLMODE
 70
     1
  9
$QTEXTMODE
 70
     0
  9
$MIRRTEXT
 70
     1
  9
$LTSCALE
 40
1.0
  9
$ATTMODE
 70
     1
  9
$TEXTSIZE
 40
3.175
  9
$TRACEWID
 40
1.0
  9
$TEXTSTYLE
  7
Standard
  9
$CLAYER
  8
0
  9
$CELTYPE
  6
ByLayer
  9
$CECOLOR
 62
   256
  9
$CELTSCALE
 40
1.0
  9
$DISPSILH
 70
     0
  9
$DIMSCALE
 40
1.0
  9
$DIMASZ
 40
3.302
  9
$DIMEXO
 40
1.27
  9
$DIMDLI
 40
3.75
  9
$DIMRND
 40
0.0
  9
$DIMDLE
 40
0.0
  9
$DIMEXE
 40
3.175
  9
$DIMTP
 40
0.0
  9
$DIMTM
 40
0.0
  9
$DIMTXT
 40
3.175
  9
$DIMCEN
 40
2.5
  9
$DIMTSZ
 40
0.0
  9
$DIMTOL
 70
     0
  9
$DIMLIM
 70
     0
  9
$DIMTIH
 70
     1
  9
$DIMTOH
 70
     1
  9
$DIMSE1
 70
     0
  9
$DIMSE2
 70
     0
  9
$DIMTAD
 70
     0
  9
$DIMZIN
 70
     0
  9
$DIMBLK
  1

  9
$DIMASO
 70
     1
  9
$DIMSHO
 70
     1
  9
$DIMPOST
  1

  9
$DIMAPOST
  1

  9
$DIMALT
 70
     0
  9
$DIMALTD
 70
     3
  9
$DIMALTF
 40
0.0393700787
  9
$DIMLFAC
 40
1.0
  9
$DIMTOFL
 70
     1
  9
$DIMTVP
 40
0.0
  9
$DIMTIX
 70
     0
  9
$DIMSOXD
 70
     0
  9
$DIMSAH
 70
     0
  9
$DIMBLK1
  1

  9
$DIMBLK2
  1

  9
$DIMSTYLE
  2
ISO-25
  9
$DIMCLRD
 70
     0
  9
$DIMCLRE
 70
     0
  9
$DIMCLRT
 70
     0
  9
$DIMTFAC
 40
1.0
  9
$DIMGAP
 40
1.524
  9
$DIMJUST
 70
     0
  9
$DIMSD1
 70
     0
  9
$DIMSD2
 70
     0
  9
$DIMTOLJ
 70
     0
  9
$DIMTZIN
 70
     0
  9
$DIMALTZ
 70
     0
  9
$DIMALTTZ
 70
     0
  9
$DIMUPT
 70
     0
  9
$DIMDEC
 70
     2
  9
$DIMTDEC
 70
     2
  9
$DIMALTU
 70
     2
  9
$DIMALTTD
 70
     3
  9
$DIMTXSTY
  7
Standard
  9
$DIMAUNIT
 70
     0
  9
$DIMADEC
 70
     2
  9
$DIMALTRND
 40
0.0
  9
$DIMAZIN
 70
     0
  9
$DIMDSEP
 70
    44
  9
$DIMATFIT
 70
     3
  9
$DIMFRAC
 70
     0
  9
$DIMLDRBLK
  1

  9
$DIMLUNIT
 70
     2
  9
$DIMLWD
 70
    -2
  9
$DIMLWE
 70
    -2
  9
$DIMTMOVE
 70
     0
  9
$LUNITS
 70
     2
  9
$LUPREC
 70
     2
  9
$SKETCHINC
 40
1.0
  9
$FILLETRAD
 40
10.0
  9
$AUNITS
 70
     0
  9
$AUPREC
 70
     2
  9
$MENU
  1
.
  9
$ELEVATION
 40
0.0
  9
$PELEVATION
 40
0.0
  9
$THICKNESS
 40
0.0
  9
$LIMCHECK
 70
     0
  9
$CHAMFERA
 40
0.0
  9
$CHAMFERB
 40
0.0
  9
$CHAMFERC
 40
0.0
  9
$CHAMFERD
 40
0.0
  9
$SKPOLY
 70
     0
  9
$TDCREATE
 40
2458094.631537893
  9
$TDUCREATE
 40
2458094.589871227
  9
$TDUPDATE
 40
2458094.631543148
  9
$TDUUPDATE
 40
2458094.589876481
  9
$TDINDWG
 40
0.0000000116
  9
$TDUSRTIMER
 40
0.0000000116
  9
$USRTIMER
 70
     1
  9
$ANGBASE
 50
0.0
  9
$ANGDIR
 70
     0
  9
$PDMODE
 70
     0
  9
$PDSIZE
 40
-1.0
  9
$PLINEWID
 40
0.0
  9
$SPLFRAME
 70
     0
  9
$SPLINETYPE
 70
     6
  9
$SPLINESEGS
 70
     8
  9
$HANDSEED
  5
1AA
  9
$SURFTAB1
 70
     6
  9
$SURFTAB2
 70
     6
  9
$SURFTYPE
 70
     6
  9
$SURFU
 70
     6
  9
$SURFV
 70
     6
  9
$UCSBASE
  2

  9
$UCSNAME
  2

  9
$UCSORG
 10
0.0
 20
0.0
 30
0.0
  9
$UCSXDIR
 10
1.0
 20
0.0
 30
0.0
  9
$UCSYDIR
 10
0.0
 20
1.0
 30
0.0
  9
$UCSORTHOREF
  2

  9
$UCSORTHOVIEW
 70
     0
  9
$UCSORGTOP
 10
0.0
 20
0.0
 30
0.0
  9
$UCSORGBOTTOM
 10
0.0
 20
0.0
 30
0.0
  9
$UCSORGLEFT
 10
0.0
 20
0.0
 30
0.0
  9
$UCSORGRIGHT
 10
0.0
 20
0.0
 30
0.0
  9
$UCSORGFRONT
 10
0.0
 20
0.0
 30
0.0
  9
$UCSORGBACK
 10
0.0
 20
0.0
 30
0.0
  9
$PUCSBASE
  2

  9
$PUCSNAME
  2

  9
$PUCSORG
 10
0.0
 20
0.0
 30
0.0
  9
$PUCSXDIR
 10
1.0
 20
0.0
 30
0.0
  9
$PUCSYDIR
 10
0.0
 20
1.0
 30
0.0
  9
$PUCSORTHOREF
  2

  9
$PUCSORTHOVIEW
 70
     0
  9
$PUCSORGTOP
 10
0.0
 20
0.0
 30
0.0
  9
$PUCSORGBOTTOM
 10
0.0
 20
0.0
 30
0.0
  9
$PUCSORGLEFT
 10
0.0
 20
0.0
 30
0.0
  9
$PUCSORGRIGHT
 10
0.0
 20
0.0
 30
0.0
  9
$PUCSORGFRONT
 10
0.0
 20
0.0
 30
0.0
  9
$PUCSORGBACK
 10
0.0
 20
0.0
 30
0.0
  9
$USERI1
 70
     0
  9
$USERI2
 70
     0
  9
$USERI3
 70
     0
  9
$USERI4
 70
     0
  9
$USERI5
 70
     0
  9
$USERR1
 40
0.0
  9
$USERR2
 40
0.0
  9
$USERR3
 40
0.0
  9
$USERR4
 40
0.0
  9
$USERR5
 40
0.0
  9
$WORLDVIEW
 70
     1
  9
$SHADEDGE
 70
     3
  9
$SHADEDIF
 70
    70
  9
$TILEMODE
 70
     1
  9
$MAXACTVP
 70
    64
  9
$PINSBASE
 10
0.0
 20
0.0
 30
0.0
  9
$PLIMCHECK
 70
     0
  9
$PEXTMIN
 10
1.0000000000E+20
 20
1.0000000000E+20
 30
1.0000000000E+20
  9
$PEXTMAX
 10
-1.0000000000E+20
 20
-1.0000000000E+20
 30
-1.0000000000E+20
  9
$PLIMMIN
 10
0.0
 20
0.0
  9
$PLIMMAX
 10
420.0
 20
297.0
  9
$UNITMODE
 70
     0
  9
$VISRETAIN
 70
     1
  9
$PLINEGEN
 70
     0
  9
$PSLTSCALE
 70
     1
  9
$TREEDEPTH
 70
  3020
  9
$CMLSTYLE
  2
Standard
  9
$CMLJUST
 70
     0
  9
$CMLSCALE
 40
20.0
  9
$PROXYGRAPHICS
 70
     1
  9
$MEASUREMENT
 70
     1
  9
$CELWEIGHT
370
    -1
  9
$ENDCAPS
280
     0
  9
$JOINSTYLE
280
     0
  9
$LWDISPLAY
290
     1
  9
$INSUNITS
 70
     4
  9
$HYPERLINKBASE
  1

  9
$STYLESHEET
  1

  9
$XEDIT
290
     1
  9
$CEPSNTYPE
380
     0
  9
$PSTYLEMODE
290
     1
  9
$FINGERPRINTGUID
  2
{9D70DA84-ED25-4806-A1A3-B4AB29DA6E98}
  9
$VERSIONGUID
  2
{FAEB1C32-E019-11D5-929B-00C0DF256EC4}
  9
$EXTNAMES
290
     1
  9
$PSVPSCALE
 40
0.0
  9
$OLESTARTUP
290
     0
  0
ENDSEC
  0
SECTION
  2
CLASSES
  0
CLASS
  1
ACDBDICTIONARYWDFLT
  2
AcDbDictionaryWithDefault
  3
ObjectDBX Classes
 90
        0
280
     0
281
     0
  0
CLASS
  1
VISUALSTYLE
  2
AcDbVisualStyle
  3
ObjectDBX Classes
 90
     4095
280
     0
281
     0
  0
CLASS
  1
MATERIAL
  2
AcDbMaterial
  3
ObjectDBX Classes
 90
     1153
280
     0
281
     0
  0
CLASS
  1
SCALE
  2
AcDbScale
  3
ObjectDBX Classes
 90
     1153
280
     0
281
     0
  0
CLASS
  1
TABLESTYLE
  2
AcDbTableStyle
  3
ObjectDBX Classes
 90
     4095
280
     0
281
     0
  0
CLASS
  1
MLEADERSTYLE
  2
AcDbMLeaderStyle
  3
ACDB_MLEADERSTYLE_CLASS
 90
     4095
280
     0
281
     0
  0
CLASS
  1
SUN
  2
AcDbSun
  3
SCENEOE
 90
     1153
280
     0
281
     0
  0
CLASS
  1
ACDBPLACEHOLDER
  2
AcDbPlaceHolder
  3
ObjectDBX Classes
 90
        0
280
     0
281
     0
  0
CLASS
  1
LAYOUT
  2
AcDbLayout
  3
ObjectDBX Classes
 90
        0
280
     0
281
     0
  0
ENDSEC
  0
SECTION
  2
TABLES
  0
TABLE
  2
VPORT
  5
8
330
0
100
AcDbSymbolTable
 70
     1
  0
VPORT
  5
29
330
8
100
AcDbSymbolTableRecord
100
AcDbViewportTableRecord
  2
*Active
 70
     0
 10
0.0
 20
0.0
 11
1.0
 21
1.0
 12
2000.0
 22
2000.0
 13
0.0
 23
0.0
 14
10.0
 24
10.0
 15
10.0
 25
10.0
 16
0.0
 26
0.0
 36
1.0
 17
0.0
 27
0.0
 37
0.0
 40
4000.0
 41
1.0
 42
50.0
 43
0.0
 44
0.0
 50
0.0
 51
0.0
 71
     0
 72
  2000
 73
     1
 74
     3
 75
     0
 76
     0
 77
     0
 78
     0
281
     0
 65
     1
110
0.0
120
0.0
130
0.0
111
1.0
121
0.0
131
0.0
112
0.0
122
1.0
132
0.0
 79
     0
146
0.0
  0
ENDTAB
  0
TABLE
  2
LTYPE
  5
5
330
0
100
AcDbSymbolTable
 70
     6
  0
LTYPE
  5
14
330
5
100
AcDbSymbolTableRecord
100
AcDbLinetypeTableRecord
  2
ByBlock
 70
     0
  3

 72
    65
 73
     0
 40
0.0
  0
LTYPE
  5
15
330
5
100
AcDbSymbolTableRecord
100
AcDbLinetypeTableRecord
  2
ByLayer
 70
     0
  3

 72
    65
 73
     0
 40
0.0
  0
LTYPE
  5
16
330
5
100
AcDbSymbolTableRecord
100
AcDbLinetypeTableRecord
  2
Continuous
 70
     0
  3
Solid line
 72
    65
 73
     0
 40
0.0
  0
LTYPE
  5
6E
330
5
100
AcDbSymbolTableRecord
100
AcDbLinetypeTableRecord
  2
HIDDEN
 70
     0
  3
Hidden __ __ __ __ __ __ __ __ __ __ __ __ __ __
 72
    65
 73
     2
 40
1.905
 49
1.27
 74
     0
 49
-0.635
 74
     0
  0
LTYPE
  5
6F
330
5
100
AcDbSymbolTableRecord
100
AcDbLinetypeTableRecord
  2
PHANTOM
 70
     0
  3
Phantom ______  __  __  ______  __  __  ______
 72
    65
 73
     6
 40
12.7
 49
6.35
 74
     0
 49
-1.27
 74
     0
 49
1.27
 74
     0
 49
-1.27
 74
     0
 49
1.27
 74
     0
 49
-1.27
 74
     0
  0
LTYPE
  5
70
330
5
100
AcDbSymbolTableRecord
100
AcDbLinetypeTableRecord
  2
CENTER
 70
     0
  3
Center ____ _ ____ _ ____ _ ____ _ ____ _ ____
 72
    65
 73
     4
 40
10.16
 49
6.35
 74
     0
 49
-1.27
 74
     0
 49
1.27
 74
     0
 49
-1.27
 74
     0
  0
LTYPE
  5
71
330
5
100
AcDbSymbolTableRecord
100
AcDbLinetypeTableRecord
  2
CENTERX2
 70
     0
  3
Center (2x) ________  __  ________  __  _____
 72
    65
 73
     4
 40
20.32
 49
12.7
 74
     0
 49
-2.54
 74
     0
 49
2.54
 74
     0
 49
-2.54
 74
     0
  0
LTYPE
  5
72
330
5
100
AcDbSymbolTableRecord
100
AcDbLinetypeTableRecord
  2
DOT2
 70
     0
  3
Dot (.5x) ........................................
 72
    65
 73
     2
 40
0.635
 49
0.0
 74
     0
 49
-0.635
 74
     0
  0
ENDTAB
  0
TABLE
  2
LAYER
  5
2
330
0
100
AcDbSymbolTable
 70
     2
  0
LAYER
  5
10
330
2
100
AcDbSymbolTableRecord
100
AcDbLayerTableRecord
  2
0
 70
     0
 62
     7
  6
Continuous
370
    -3
390
F
  0
LAYER
  5
73
330
2
100
AcDbSymbolTableRecord
100
AcDbLayerTableRecord
  2
SKETCH
 70
     0
 62
     9
  6
Continuous
370
    -3
390
F
  0
ENDTAB
  0
TABLE
  2
STYLE
  5
3
330
0
100
AcDbSymbolTable
 70
     2
  0
STYLE
  5
11
330
3
100
AcDbSymbolTableRecord
100
AcDbTextStyleTableRecord
  2
Standard
 70
     0
 40
0.0
 41
1.0
 50
0.0
 71
     0
 42
3.175
  3
txt
  4

  0
STYLE
  5
74
330
3
100
AcDbSymbolTableRecord
100
AcDbTextStyleTableRecord
  2
SLDTEXTSTYLE0
 70
     0
 40
0.0
 41
0.75
 50
0.0
 71
     0
 42
3.175
  3
TXT
  4

  0
ENDTAB
  0
TABLE
  2
VIEW
  5
6
330
0
100
AcDbSymbolTable
 70
     0
  0
ENDTAB
  0
TABLE
  2
UCS
  5
7
330
0
100
AcDbSymbolTable
 70
     0
  0
ENDTAB
  0
TABLE
  2
APPID
  5
9
330
0
100
AcDbSymbolTable
 70
     1
  0
APPID
  5
12
330
9
100
AcDbSymbolTableRecord
100
AcDbRegAppTableRecord
  2
ACAD
 70
     0
  0
ENDTAB
  0
TABLE
  2
DIMSTYLE
  5
A
330
0
100
AcDbSymbolTable
 70
     1
100
AcDbDimStyleTable
  0
DIMSTYLE
105
27
330
A
100
AcDbSymbolTableRecord
100
AcDbDimStyleTableRecord
  2
ISO-25
 70
     0
 41
2.5
 42
0.625
 43
3.75
 44
1.25
 73
     0
 74
     0
 77
     1
 78
     8
140
2.5
141
2.5
143
0.0393700787
147
0.625
171
     3
172
     1
178
     0
271
     2
272
     2
274
     3
278
    44
283
     0
284
     8
340
11
  0
ENDTAB
  0
TABLE
  2
BLOCK_RECORD
  5
1
330
0
100
AcDbSymbolTable
 70
     2
  0
BLOCK_RECORD
  5
1F
330
1
100
AcDbSymbolTableRecord
100
AcDbBlockTableRecord
  2
*Model_Space
340
22
  0
BLOCK_RECORD
  5
1B
330
1
100
AcDbSymbolTableRecord
100
AcDbBlockTableRecord
  2
*Paper_Space
340
1E
  0
BLOCK_RECORD
  5
23
330
1
100
AcDbSymbolTableRecord
100
AcDbBlockTableRecord
  2
*Paper_Space0
340
26
  0
BLOCK_RECORD
  5
10E
330
1
100
AcDbSymbolTableRecord
100
AcDbBlockTableRecord
  2
SW_NOTE_0
340
0
102
{BLKREFS
331
113
102
}
  0
ENDTAB
  0
ENDSEC
  0
SECTION
  2
BLOCKS
  0
BLOCK
  5
20
330
1F
100
AcDbEntity
  8
0
100
AcDbBlockBegin
  2
*Model_Space
 70
     0
 10
0.0
 20
0.0
 30
0.0
  3
*Model_Space
  1

  0
ENDBLK
  5
21
330
1F
100
AcDbEntity
  8
0
100
AcDbBlockEnd
  0
BLOCK
  5
1C
330
1B
100
AcDbEntity
 67
     1
  8
0
100
AcDbBlockBegin
  2
*Paper_Space
 70
     0
 10
0.0
 20
0.0
 30
0.0
  3
*Paper_Space
  1

  0
ENDBLK
  5
1D
330
1B
100
AcDbEntity
 67
     1
  8
0
100
AcDbBlockEnd
  0
BLOCK
  5
24
330
23
100
AcDbEntity
  8
0
100
AcDbBlockBegin
  2
*Paper_Space0
 70
     0
 10
0.0
 20
0.0
 30
0.0
  3
*Paper_Space0
  1

  0
ENDBLK
  5
25
330
23
100
AcDbEntity
  8
0
100
AcDbBlockEnd
  0
BLOCK
  5
10F
330
10E
100
AcDbEntity
  8
0
100
AcDbBlockBegin
  2
SW_NOTE_0
 70
     0
 10
0.0
 20
0.0
 30
0.0
  3
SW_NOTE_0
  1

  0
MTEXT
  5
111
330
10E
100
AcDbEntity
  8
SKETCH
 62
     0
100
AcDbMText
 10
0.0
 20
34.1065839481
 30
0.0
 40
26.4583333333
 41
0.0
 71
     1
 72
     1
  1
%%c
  7
SLDTEXTSTYLE0
 73
     1
 44
1.0
  0
MTEXT
  5
112
330
10E
100
AcDbEntity
  8
SKETCH
 62
     0
100
AcDbMText
 10
39.9373844266
 20
34.1065839481
 30
0.0
 40
26.4583333333
 41
0.0
 71
     1
 72
     1
  1
50
  7
SLDTEXTSTYLE0
 73
     1
 44
1.0
  0
ENDBLK
  5
110
330
10E
100
AcDbEntity
  8
0
100
AcDbBlockEnd
  0
ENDSEC
  0
SECTION
  2
ENTITIES
  0
MTEXT
  5
75
330
1F
100
AcDbEntity
  8
SKETCH
100
AcDbMText
 10
1444.8843130005
 20
3769.6992268928
 30
0.0
 40
26.4583333333
 41
0.0
 71
     1
 72
     1
  1
1525
  7
SLDTEXTSTYLE0
 73
     1
 44
1.0
  0
MTEXT
  5
76
330
1F
100
AcDbEntity
  8
SKETCH
100
AcDbMText
 10
2357.3568946054
 20
3130.9055512899
 30
0.0
 40
26.4583333333
 41
0.0
 71
     1
 72
     1
  1
790
  7
SLDTEXTSTYLE0
 11
-3.491481338843133E-15
 21
1.0
 31
0.0
 73
     1
 44
1.0
  0
MTEXT
  5
77
330
1F
100
AcDbEntity
  8
SKETCH
100
AcDbMText
 10
500.021423469
 20
2013.6743142862
 30
0.0
 40
26.4583333333
 41
0.0
 71
     1
 72
     1
  1
715
  7
SLDTEXTSTYLE0
 11
-3.491481338843133E-15
 21
1.0
 31
0.0
 73
     1
 44
1.0
  0
MTEXT
  5
78
330
1F
100
AcDbEntity
  8
SKETCH
100
AcDbMText
 10
2339.3178801501
 20
762.6026442191
 30
0.0
 40
26.4583333333
 41
0.0
 71
     1
 72
     1
  1
510
  7
SLDTEXTSTYLE0
 11
-3.491481338843133E-15
 21
1.0
 31
0.0
 73
     1
 44
1.0
  0
MTEXT
  5
79
330
1F
100
AcDbEntity
  8
SKETCH
100
AcDbMText
 10
1023.4885599428
 20
3213.0541957143
 30
0.0
 40
26.4583333333
 41
0.0
 71
     1
 72
     1
  1
740
  7
SLDTEXTSTYLE0
 73
     1
 44
1.0
  0
MTEXT
  5
7A
330
1F
100
AcDbEntity
  8
SKETCH
100
AcDbMText
 10
1444.8843130005
 20
1575.9043552391
 30
0.0
 40
26.4583333333
 41
0.0
 71
     1
 72
     1
  1
980
  7
SLDTEXTSTYLE0
 73
     1
 44
1.0
  0
MTEXT
  5
7B
330
1F
100
AcDbEntity
  8
SKETCH
100
AcDbMText
 10
3046.9225372959
 20
1602.6209737798
 30
0.0
 40
26.4583333333
 41
0.0
 71
     1
 72
     1
  1
510
  7
SLDTEXTSTYLE0
 73
     1
 44
1.0
  0
MTEXT
  5
7C
330
1F
100
AcDbEntity
  8
SKETCH
100
AcDbMText
 10
3058.7295470381
 20
2517.0121675697
 30
0.0
 40
26.4583333333
 41
0.0
 71
     1
 72
     1
  1
790
  7
SLDTEXTSTYLE0
 73
     1
 44
1.0
  0
SPLINE
  5
7D
330
1F
100
AcDbEntity
  8
0
  6
Continuous
 62
     7
370
    15
100
AcDbSpline
210
0.0
220
0.0
230
1.0
 70
     8
 71
     3
 72
     9
 73
     5
 74
     0
 42
0.000000001
 43
0.00000001
 40
0.0
 40
0.0
 40
0.0
 40
0.0
 40
0.4797106809427779
 40
1.0
 40
1.0
 40
1.0
 40
1.0
 10
718.4445137110239
 20
2386.685790067997
 30
0.0
 10
716.9792895723585
 20
2384.867634771393
 30
0.0
 10
713.924898255105
 20
2381.077526756639
 30
0.0
 10
710.867493176432
 20
2377.291507332987
 30
0.0
 10
709.276757969967
 20
2375.321681865119
 30
0.0
  0
SPLINE
  5
7E
330
1F
100
AcDbEntity
  8
0
  6
Continuous
 62
     7
370
    15
100
AcDbSpline
210
0.0
220
0.0
230
1.0
 70
     8
 71
     3
 72
    10
 73
     6
 74
     0
 42
0.000000001
 43
0.00000001
 40
0.0
 40
0.0
 40
0.0
 40
0.0
 40
0.2601099258724537
 40
0.5210018745386903
 40
0.9999999999999999
 40
0.9999999999999999
 40
0.9999999999999999
 40
0.9999999999999999
 10
2237.1440627998
 20
2375.310552557838
 30
0.0
 10
2236.454238491068
 20
2376.001251674277
 30
0.0
 10
2235.072515910716
 20
2377.38472650016
 30
0.0
 10
2232.393315036005
 20
2380.069663220673
 30
0.0
 10
2230.421945389462
 20
2382.047443468955
 30
0.0
 10
2229.145698554554
 20
2383.327840469305
 30
0.0
  0
SPLINE
  5
7F
330
1F
100
AcDbEntity
  8
0
  6
Continuous
 62
     7
370
    15
100
AcDbSpline
210
0.0
220
0.0
230
1.0
 70
     8
 71
     3
 72
    67
 73
    63
 74
     0
 42
0.000000001
 43
0.00000001
 40
0.0
 40
0.0
 40
0.0
 40
0.0
 40
0.0228302352471127
 40
0.0436283410493829
 40
0.0623937225728483
 40
0.0791256473990971
 40
0.0938235772551378
 40
0.1064870974059716
 40
0.1165998072487825
 40
0.1261903296390197
 40
0.1358741131077636
 40
0.1456511914813483
 40
0.1555215512723279
 40
0.1840483132073367
 40
0.2127968676996916
 40
0.2415460221054736
 40
0.2702961613186494
 40
0.2960580679707884
 40
0.3218215860885817
 40
0.3475866766763602
 40
0.3733590525724562
 40
0.3999988466009494
 40
0.4121858330242228
 40
0.4246564665442014
 40
0.4374110050018933
 40
0.4499560262729342
 40
0.4612672958102726
 40
0.4711448290399493
 40
0.4798017950791737
 40
0.4875202750366823
 40
0.496125557842415
 40
0.5067819095366033
 40
0.5188540561315359
 40
0.5322426208926292
 40
0.5456919874530901
 40
0.5588226073227213
 40
0.5716345597895457
 40
0.5911236459325947
 40
0.6100207468604719
 40
0.6288840702449758
 40
0.6625695575271026
 40
0.6965620185130734
 40
0.7311365111918362
 40
0.7446906315547405
 40
0.7585796177656934
 40
0.7728034745907613
 40
0.7873622040631925
 40
0.8017448720071074
 40
0.8137999186695628
 40
0.8236164953874382
 40
0.8318333008768674
 40
0.840440912201083
 40
0.8492105215646023
 40
0.8592425561731794
 40
0.870536980332594
 40
0.883132001381058
 40
0.8975684076203176
 40
0.9140215223236648
 40
0.9324912757367014
 40
0.9529774451769844
 40
0.9754805217350677
 40
1.0
 40
1.0
 40
1.0
 40
1.0
 10
2227.002059739422
 20
2383.755283680657
 30
0.0
 10
2226.764488657871
 20
2383.703626983398
 30
0.0
 10
2226.310492802935
 20
2383.604911574595
 30
0.0
 10
2225.009919906277
 20
2383.322795721812
 30
0.0
 10
2223.464877308052
 20
2382.986163418194
 30
0.0
 10
2221.76230382484
 20
2382.613534466608
 30
0.0
 10
2220.025667827249
 20
2382.232229983642
 30
0.0
 10
2218.372414274623
 20
2381.868495004143
 30
0.0
 10
2216.81831117864
 20
2381.526066148128
 30
0.0
 10
2215.310055949927
 20
2381.193387291347
 30
0.0
 10
2213.726486208328
 20
2380.843756215816
 30
0.0
 10
2212.034241320414
 20
2380.46975151939
 30
0.0
 10
2209.10185221168
 20
2379.821009520836
 30
0.0
 10
2204.60163051776
 20
2378.823304631482
 30
0.0
 10
2198.074689436898
 20
2377.369440398062
 30
0.0
 10
2190.79063923959
 20
2375.73766757084
 30
0.0
 10
2183.068742378149
 20
2373.998378513561
 30
0.0
 10
2175.014449356652
 20
2372.176167757612
 30
0.0
 10
2166.720618990535
 20
2370.294463939356
 30
0.0
 10
2157.902813903983
 20
2368.2888474512
 30
0.0
 10
2148.468014147754
 20
2366.134492315045
 30
0.0
 10
2140.25575731867
 20
2364.252961659714
 30
0.0
 10
2133.507140113918
 20
2362.706310772962
 30
0.0
 10
2128.482262588229
 20
2361.554977023278
 30
0.0
 10
2123.307097246774
 20
2360.370368816032
 30
0.0
 10
2118.195123067073
 20
2359.202204001399
 30
0.0
 10
2113.404623036198
 20
2358.109939617227
 30
0.0
 10
2109.105558119453
 20
2357.132143922558
 30
0.0
 10
2105.278664952898
 20
2356.263890122718
 30
0.0
 10
2101.60031052013
 20
2355.431354702652
 30
0.0
 10
2097.587379002761
 20
2354.52547624029
 30
0.0
 10
2092.873879729646
 20
2353.46503902689
 30
0.0
 10
2087.37133894806
 20
2352.232495222261
 30
0.0
 10
2081.362694020919
 20
2350.893799484461
 30
0.0
 10
2075.107721113229
 20
2349.508844633306
 30
0.0
 10
2068.865516412135
 20
2348.135921013418
 30
0.0
 10
2061.582576518547
 20
2346.545400497852
 30
0.0
 10
2053.262180102512
 20
2344.745562303627
 30
0.0
 10
2043.817396268291
 20
2342.727962653883
 30
0.0
 10
2031.86762860812
 20
2340.208259508372
 30
0.0
 10
2017.133322554199
 20
2337.16008736134
 30
0.0
 10
1999.373570427567
 20
2333.58764964366
 30
0.0
 10
1984.853641918068
 20
2330.762520999615
 30
0.0
 10
1973.766001110035
 20
2328.661433766688
 30
0.0
 10
1966.2714398347
 20
2327.263485019389
 30
0.0
 10
1958.55104192098
 20
2325.847649802568
 30
0.0
 10
1950.6967828867
 20
2324.4334866661
 30
0.0
 10
1943.196900817052
 20
2323.10899502684
 30
0.0
 10
1936.534176151273
 20
2321.953118559432
 30
0.0
 10
1930.984854832336
 20
2321.004659283141
 30
0.0
 10
1926.057555601384
 20
2320.172900085074
 30
0.0
 10
1921.312007758162
 20
2319.38111659123
 30
0.0
 10
1916.217313533545
 20
2318.541352973799
 30
0.0
 10
1910.608956206269
 20
2317.62909911262
 30
0.0
 10
1904.270425023286
 20
2316.613749780844
 30
0.0
 10
1897.088183398001
 20
2315.483357074488
 30
0.0
 10
1888.914035005229
 20
2314.223091999293
 30
0.0
 10
1879.605330639443
 20
2312.822234125155
 30
0.0
 10
1869.121098521137
 20
2311.286956437951
 30
0.0
 10
1857.453010730246
 20
2309.631751706567
 30
0.0
 10
1844.5968250403
 20
2307.868120404115
 30
0.0
 10
1835.606916368316
 20
2306.698810858673
 30
0.0
 10
1830.919211263476
 20
2306.089085162306
 30
0.0
  0
LINE
  5
80
330
1F
100
AcDbEntity
  8
0
  6
Continuous
 62
     7
370
    15
100
AcDbLine
 10
1944.8408923789
 20
1744.0601984401
 30
0.0
 11
1945.8677397167
 21
1744.0476160603
 31
0.0
  0
LINE
  5
81
330
1F
100
AcDbEntity
  8
0
  6
Continuous
 62
     7
370
    15
100
AcDbLine
 10
1946.7449602994
 20
1743.9483667214
 30
0.0
 11
1947.5772613277
 21
1743.7693186929
 31
0.0
  0
LINE
  5
82
330
1F
100
AcDbEntity
  8
0
  6
Continuous
 62
     7
370
    15
100
AcDbLine
 10
1944.61192432
 20
1744.0492951284
 30
0.0
 11
1945.6238505665
 21
1744.0752098462
 31
0.0
  0
LINE
  5
83
330
1F
100
AcDbEntity
  8
0
  6
Continuous
 62
     7
370
    15
100
AcDbLine
 10
1000.6350910649
 20
1744.1097242021
 30
0.0
 11
1001.5875987957
 21
1744.0898460427
 31
0.0
  0
LINE
  5
84
330
1F
100
AcDbEntity
  8
0
  6
Continuous
 62
     7
370
    15
100
AcDbLine
 10
998.8971319607
 20
1743.8500593359
 30
0.0
 11
999.2600578041
 21
1743.9295503271
 31
0.0
  0
LINE
  5
85
330
1F
100
AcDbEntity
  8
0
  6
Continuous
 62
     7
370
    15
100
AcDbLine
 10
1000.4263510809
 20
1744.0823725061
 30
0.0
 11
1001.4062842268
 21
1744.0981642277
 31
0.0
  0
SPLINE
  5
86
330
1F
100
AcDbEntity
  8
0
  6
Continuous
 62
     7
370
    15
100
AcDbSpline
210
0.0
220
0.0
230
1.0
 70
     8
 71
     3
 72
     9
 73
     5
 74
     0
 42
0.000000001
 43
0.00000001
 40
0.0
 40
0.0
 40
0.0
 40
0.0
 40
0.61774390098041
 40
1.0
 40
1.0
 40
1.0
 40
1.0
 10
778.6098149321512
 20
2298.767609592606
 30
0.0
 10
784.8275055780729
 20
2290.443436689956
 30
0.0
 10
794.8926646772619
 20
2276.968317163177
 30
0.0
 10
804.293457133678
 20
2263.023417345444
 30
0.0
 10
807.8869673857604
 20
2257.692894339898
 30
0.0
  0
LINE
  5
87
330
1F
100
AcDbEntity
  8
0
  6
Continuous
 62
     7
370
    15
100
AcDbLine
 10
983.0107182422
 20
1681.9983729435
 30
0.0
 11
983.4156203401
 21
1673.5914202141
 31
0.0
  0
LINE
  5
88
330
1F
100
AcDbEntity
  8
0
  6
Continuous
 62
     7
370
    15
100
AcDbLine
 10
1526.0511008303
 20
1728.501974946
 30
0.0
 11
1526.0342685935
 21
1728.4034254268
 31
0.0
  0
LINE
  5
89
330
1F
100
AcDbEntity
  8
0
  6
Continuous
 62
     7
370
    15
100
AcDbLine
 10
1526.2380534593
 20
1729.596546746
 30
0.0
 11
1526.1100274143
 21
1728.8469787977
 31
0.0
  0
LINE
  5
8A
330
1F
100
AcDbEntity
  8
0
  6
Continuous
 62
     7
370
    15
100
AcDbLine
 10
1419.3527288611
 20
1728.9564463204
 30
0.0
 11
1419.2703162186
 21
1729.4395142177
 31
0.0
  0
LINE
  5
8B
330
1F
100
AcDbEntity
  8
0
  6
Continuous
 62
     7
370
    15
100
AcDbLine
 10
1419.4283921904
 20
1728.5129400297
 30
0.0
 11
1419.4115893426
 21
1728.6114311849
 31
0.0
  0
LINE
  5
8C
330
1F
100
AcDbEntity
  8
0
  6
Continuous
 62
     7
370
    15
100
AcDbLine
 10
2167.9950512973
 20
2298.8100876844
 30
0.0
 11
2182.6233210675
 21
2317.6339986151
 31
0.0
  0
LINE
  5
8D
330
1F
100
AcDbEntity
  8
0
  6
Continuous
 62
     7
370
    15
100
AcDbLine
 10
2228.5381029996
 20
2371.2343053033
 30
0.0
 11
2229.0856400903
 21
2371.8352180479
 31
0.0
  0
SPLINE
  5
8E
330
1F
100
AcDbEntity
  8
0
  6
Continuous
 62
     7
370
    15
100
AcDbSpline
210
0.0
220
0.0
230
1.0
 70
     8
 71
     3
 72
    13
 73
     9
 74
     0
 42
0.000000001
 43
0.00000001
 40
0.0
 40
0.0
 40
0.0
 40
0.0
 40
0.193196756051501
 40
0.3885558484711888
 40
0.5656925713774035
 40
0.7246488765004705
 40
0.8654576947371426
 40
1.0
 40
1.0
 40
1.0
 40
1.0
 10
717.5687879032688
 20
2371.84526132072
 30
0.0
 10
719.7002928014025
 20
2369.515890785764
 30
0.0
 10
723.9871592640777
 20
2364.831078457072
 30
0.0
 10
730.1437726958476
 20
2357.933867381983
 30
0.0
 10
735.8742052702887
 20
2351.406862249996
 30
0.0
 10
740.9658640889003
 20
2345.505784733484
 30
0.0
 10
745.5669674763321
 20
2340.101039316509
 30
0.0
 10
748.4523644901484
 20
2336.647803507057
 30
0.0
 10
749.8622296866421
 20
2334.96048042475
 30
0.0
  0
LINE
  5
8F
330
1F
100
AcDbEntity
  8
0
  6
Continuous
 62
     7
370
    15
100
AcDbLine
 10
998.9156524217
 20
1743.8867656768
 30
0.0
 11
998.9027548095
 21
1743.8826427626
 31
0.0
  0
SPLINE
  5
90
330
1F
100
AcDbEntity
  8
0
  6
Continuous
 62
     7
370
    15
100
AcDbSpline
210
0.0
220
0.0
230
1.0
 70
     8
 71
     3
 72
    13
 73
     9
 74
     0
 42
0.000000001
 43
0.00000001
 40
0.0
 40
0.0
 40
0.0
 40
0.0
 40
0.2910030200632134
 40
0.5304881667772424
 40
0.6389990509780117
 40
0.7473806926927525
 40
0.8658718496622391
 40
1.0
 40
1.0
 40
1.0
 40
1.0
 10
720.4991687879232
 20
2387.368432095166
 30
0.0
 10
720.4540662993496
 20
2387.380620461258
 30
0.0
 10
720.3718460650877
 20
2387.402839419614
 30
0.0
 10
720.0026811668498
 20
2387.443866466207
 30
0.0
 10
719.5881305749604
 20
2387.398112686864
 30
0.0
 10
719.2219316327229
 20
2387.28777098328
 30
0.0
 10
718.7995660693604
 20
2387.060587919434
 30
0.0
 10
718.5572743400551
 20
2386.803138791504
 30
0.0
 10
718.4286296143598
 20
2386.666446249263
 30
0.0
  0
SPLINE
  5
91
330
1F
100
AcDbEntity
  8
0
  6
Continuous
 62
     7
370
    15
100
AcDbSpline
210
0.0
220
0.0
230
1.0
 70
     8
 71
     3
 72
    60
 73
    56
 74
     0
 42
0.000000001
 43
0.00000001
 40
0.0
 40
0.0
 40
0.0
 40
0.0
 40
0.0146120159212657
 40
0.0274519625457265
 40
0.0385197158752365
 40
0.0478152293794117
 40
0.0553384444462352
 40
0.061946067668014
 40
0.0778794645367429
 40
0.0942563138924311
 40
0.1089337886730328
 40
0.1236792739044545
 40
0.1390246079212226
 40
0.15492687044565
 40
0.1693031467234668
 40
0.1819082185556279
 40
0.1963953565060174
 40
0.2119051796133943
 40
0.227377525652478
 40
0.2426998448381276
 40
0.2577903176007014
 40
0.297489410344115
 40
0.3371850038479726
 40
0.3768767124017416
 40
0.4165648632187376
 40
0.4562468067222086
 40
0.4959233816597673
 40
0.5208087071101664
 40
0.5457383611328915
 40
0.5716293564336014
 40
0.5834731390320578
 40
0.5940278544964936
 40
0.6039115197083318
 40
0.614997988193685
 40
0.6271371541825307
 40
0.6548523336116855
 40
0.6817152301400142
 40
0.7079507249781194
 40
0.7341845872713985
 40
0.7639935814725386
 40
0.7938013981207006
 40
0.8236086761420575
 40
0.8534155530456988
 40
0.8701085370123683
 40
0.8868014091358702
 40
0.9034298957358051
 40
0.9189935087167431
 40
0.9241371324080592
 40
0.9292188620289898
 40
0.9353749765743341
 40
0.9429006411599055
 40
0.9517960853776033
 40
0.9655166556788447
 40
0.9815857731053255
 40
1.0
 40
1.0
 40
1.0
 40
1.0
 10
1088.572658651106
 20
2311.635581209714
 30
0.0
 10
1085.877622792292
 20
2312.024222621215
 30
0.0
 10
1080.814391007287
 20
2312.754373035074
 30
0.0
 10
1073.729698675342
 20
2313.804489151138
 30
0.0
 10
1067.634519063599
 20
2314.722946701423
 30
0.0
 10
1062.525047594708
 20
2315.504784179548
 30
0.0
 10
1058.239693925183
 20
2316.168539998981
 30
0.0
 10
1052.747924000631
 20
2317.027902000501
 30
0.0
 10
1045.655462471645
 20
2318.155783623642
 30
0.0
 10
1037.12363047891
 20
2319.543908908293
 30
0.0
 10
1028.839549319147
 20
2320.921720955359
 30
0.0
 10
1020.774164744148
 20
2322.291527408025
 30
0.0
 10
1012.524434599948
 20
2323.722738918846
 30
0.0
 10
1004.381339436553
 20
2325.166932754799
 30
0.0
 10
996.7665267514408
 20
2326.545430333991
 30
0.0
 10
989.4385513502074
 20
2327.895104838728
 30
0.0
 10
981.9482889891549
 20
2329.297383959045
 30
0.0
 10
974.0006303498247
 20
2330.810038371305
 30
0.0
 10
965.958588540538
 20
2332.365254794843
 30
0.0
 10
958.0427965137899
 20
2333.91937758735
 30
0.0
 10
946.0325767009692
 20
2336.311757991431
 30
0.0
 10
930.0617064509017
 20
2339.577797900771
 30
0.0
 10
910.3908592462577
 20
2343.745831841755
 30
0.0
 10
891.2406404655534
 20
2347.928913266426
 30
0.0
 10
872.6634262878109
 20
2352.076481911967
 30
0.0
 10
854.7384702202392
 20
2356.148553679757
 30
0.0
 10
839.7068339705454
 20
2359.634552986231
 30
0.0
 10
827.3176579283922
 20
2362.531075320538
 30
0.0
 10
817.1953579954801
 20
2364.904337317673
 30
0.0
 10
809.1433410014332
 20
2366.794309017189
 30
0.0
 10
803.1424748741426
 20
2368.204330828818
 30
0.0
 10
799.215074436813
 20
2369.127063057723
 30
0.0
 10
795.4566689277871
 20
2370.010104995676
 30
0.0
 10
791.5961200752489
 20
2370.9172985993
 30
0.0
 10
785.8032136684876
 20
2372.278651752752
 30
0.0
 10
778.537209673612
 20
2373.98384778929
 30
0.0
 10
770.2864147794037
 20
2375.9084791468
 30
0.0
 10
762.7304879795365
 20
2377.661083988509
 30
0.0
 10
755.473471347845
 20
2379.341393989529
 30
0.0
 10
748.5669848754883
 20
2380.940933591672
 30
0.0
 10
742.1319843412989
 20
2382.43228045896
 30
0.0
 10
736.4740453605455
 20
2383.738657171715
 30
0.0
 10
732.3279795992205
 20
2384.687591177557
 30
0.0
 10
729.3515904309628
 20
2385.364404766813
 30
0.0
 10
727.2612157544943
 20
2385.838510414652
 30
0.0
 10
725.4823048489757
 20
2386.241556856133
 30
0.0
 10
724.3214776755851
 20
2386.504991599732
 30
0.0
 10
723.6088368918158
 20
2386.667037538226
 30
0.0
 10
723.1842392634651
 20
2386.763624395734
 30
0.0
 10
722.7328989098097
 20
2386.866318390277
 30
0.0
 10
722.241959709967
 20
2386.977954132842
 30
0.0
 10
721.6698799162313
 20
2387.107763716785
 30
0.0
 10
721.0895887246561
 20
2387.238386012615
 30
0.0
 10
720.5942024389742
 20
2387.348305256854
 30
0.0
 10
720.5115115874837
 20
2387.366404963237
 30
0.0
 10
720.4673543825653
 20
2387.376070269971
 30
0.0
  0
SPLINE
  5
92
330
1F
100
AcDbEntity
  8
0
  6
Continuous
 62
     7
370
    15
100
AcDbSpline
210
0.0
220
0.0
230
1.0
 70
     8
 71
     3
 72
    32
 73
    28
 74
     0
 42
0.000000001
 43
0.00000001
 40
0.0
 40
0.0
 40
0.0
 40
0.0
 40
0.0183732526874384
 40
0.0403646670680951
 40
0.0599735120528912
 40
0.0771998588747894
 40
0.092043770061576
 40
0.1045052950457289
 40
0.115414626244539
 40
0.1459308925224928
 40
0.1773370731954131
 40
0.2903234662863983
 40
0.3912048048523457
 40
0.4920864128770125
 40
0.5776833336058522
 40
0.6632801035214939
 40
0.748878269345347
 40
0.7865425618962686
 40
0.8235017709743903
 40
0.8571609159931529
 40
0.8690026946905113
 40
0.8839588399271108
 40
0.9020656341515358
 40
0.9233231044258808
 40
0.9477314983837041
 40
0.9752905298199274
 40
1.0
 40
1.0
 40
1.0
 40
1.0
 10
1444.345218972907
 20
2286.224230232461
 30
0.0
 10
1442.152530865806
 20
2286.246055406511
 30
0.0
 10
1437.335358483051
 20
2286.294003687592
 30
0.0
 10
1430.178312504098
 20
2286.384415326468
 30
0.0
 10
1423.158353301925
 20
2286.484849020528
 30
0.0
 10
1416.991555574916
 20
2286.584274971928
 30
0.0
 10
1411.677829342927
 20
2286.678153482389
 30
0.0
 10
1407.118034318726
 20
2286.764905229864
 30
0.0
 10
1400.68841986956
 20
2286.894796100346
 30
0.0
 10
1391.99891995089
 20
2287.088730564874
 30
0.0
 10
1371.133097727601
 20
2287.62284361701
 30
0.0
 10
1341.881565836278
 20
2288.603769191217
 30
0.0
 10
1304.375257562734
 20
2290.357260891409
 30
0.0
 10
1270.171685727822
 20
2292.419069908916
 30
0.0
 10
1237.835745882917
 20
2294.803484635168
 30
0.0
 10
1207.370131766109
 20
2297.456323617487
 30
0.0
 10
1182.651043170986
 20
2299.940853501284
 30
0.0
 10
1163.734008853771
 20
2302.01631096074
 30
0.0
 10
1150.970222172875
 20
2303.486499322952
 30
0.0
 10
1141.267381675169
 20
2304.653495092017
 30
0.0
 10
1134.16276661901
 20
2305.531137613905
 30
0.0
 10
1128.889952756628
 20
2306.192619781567
 30
0.0
 10
1122.518101366556
 20
2307.007139883441
 30
0.0
 10
1115.047097757793
 20
2307.983090093027
 30
0.0
 10
1106.483515336015
 20
2309.131204602317
 30
0.0
 10
1097.53173443208
 20
2310.360689808097
 30
0.0
 10
1091.449664564424
 20
2311.22854663917
 30
0.0
 10
1088.574420021713
 20
2311.638818252567
 30
0.0
  0
SPLINE
  5
93
330
1F
100
AcDbEntity
  8
0
  6
Continuous
 62
     7
370
    15
100
AcDbSpline
210
0.0
220
0.0
230
1.0
 70
     8
 71
     3
 72
    31
 73
    27
 74
     0
 42
0.000000001
 43
0.00000001
 40
0.0
 40
0.0
 40
0.0
 40
0.0
 40
0.0183777009756898
 40
0.0403721044492923
 40
0.0599828654905183
 40
0.077209954524511
 40
0.0920534695468236
 40
0.1045134487732132
 40
0.115423930992463
 40
0.1459450474371292
 40
0.1773553246948865
 40
0.2903463971551031
 40
0.3912276339160603
 40
0.4921082970208332
 40
0.6204995461564591
 40
0.748889902978959
 40
0.7865513844753182
 40
0.8235059812789677
 40
0.8571602222959994
 40
0.8690041615626356
 40
0.8839623070810513
 40
0.9020703570435454
 40
0.9233283920042452
 40
0.9477365124883314
 40
0.975294852223891
 40
1.0
 40
1.0
 40
1.0
 40
1.0
 10
1830.915168648539
 20
2306.0919775367
 30
0.0
 10
1828.749965083417
 20
2305.814291180214
 30
0.0
 10
1823.99344931462
 20
2305.204270231292
 30
0.0
 10
1816.912004313027
 20
2304.327090493838
 30
0.0
 10
1809.95889259973
 20
2303.484161120296
 30
0.0
 10
1803.844125135936
 20
2302.760137642867
 30
0.0
 10
1798.570913794154
 20
2302.148155387441
 30
0.0
 10
1794.042519814498
 20
2301.631839303933
 30
0.0
 10
1787.652672012419
 20
2300.914418461969
 30
0.0
 10
1779.007435277745
 20
2299.970557876972
 30
0.0
 10
1758.219829996659
 20
2297.79864288822
 30
0.0
 10
1728.990423477832
 20
2295.065773133662
 30
0.0
 10
1691.386311654989
 20
2292.208072149193
 30
0.0
 10
1651.872553865633
 20
2289.822934345014
 30
0.0
 10
1609.004981125514
 20
2287.934952595951
 30
0.0
 10
1573.681912368251
 20
2286.957802032372
 30
0.0
 10
1549.321631796193
 20
2286.506931897585
 30
0.0
 10
1536.328101865999
 20
2286.317575709675
 30
0.0
 10
1526.432250122608
 20
2286.2086917004
 30
0.0
 10
1519.17614913433
 20
2286.144911079923
 30
0.0
 10
1513.785846212344
 20
2286.104441728339
 30
0.0
 10
1507.26551447655
 20
2286.065635280565
 30
0.0
 10
1499.610822063481
 20
2286.03369038843
 30
0.0
 10
1490.821732546465
 20
2286.015456381515
 30
0.0
 10
1481.6188278903
 20
2286.013676191133
 30
0.0
 10
1475.34566095748
 20
2286.032794548372
 30
0.0
 10
1472.380311274971
 20
2286.041831867987
 30
0.0
  0
LINE
  5
94
330
1F
100
AcDbEntity
  8
0
  6
Continuous
 62
     7
370
    15
100
AcDbLine
 10
1472.3803185567
 20
2286.0418249159
 30
0.0
 11
1466.7804603776
 21
2286.063126732
 31
0.0
  0
LINE
  5
95
330
1F
100
AcDbEntity
  8
0
  6
Continuous
 62
     7
370
    15
100
AcDbLine
 10
1459.6440440131
 20
2286.1009714324
 30
0.0
 11
1444.2538840099
 21
2286.2228865876
 31
0.0
  0
LINE
  5
96
330
1F
100
AcDbEntity
  8
0
  6
Continuous
 62
     7
370
    15
100
AcDbLine
 10
1466.8775333731
 20
2286.0629360554
 30
0.0
 11
1459.6387931393
 21
2286.1010130279
 31
0.0
  0
LINE
  5
97
330
1F
100
AcDbEntity
  8
0
  6
Continuous
 62
     7
370
    15
100
AcDbLine
 10
709.3790700572
 20
2375.3832911236
 30
0.0
 11
709.3476731436
 21
2375.3893257634
 31
0.0
  0
SPLINE
  5
98
330
1F
100
AcDbEntity
  8
0
  6
Continuous
 62
     7
370
    15
100
AcDbSpline
210
0.0
220
0.0
230
1.0
 70
     8
 71
     3
 72
    14
 73
    10
 74
     0
 42
0.000000001
 43
0.00000001
 40
0.0007639046092422
 40
0.0007639046092422
 40
0.0007639046092422
 40
0.0007639046092422
 40
0.0050826689191075
 40
0.0050826689191075
 40
0.0050826689191075
 40
0.0102249289184169
 40
0.0102249289184169
 40
0.0102249289184169
 40
0.0152729960678433
 40
0.0152729960678433
 40
0.0152729960678433
 40
0.0152729960678433
 10
718.4587802959064
 20
2386.680978150317
 30
0.0
 10
717.5556267072537
 20
2385.559939566959
 30
0.0
 10
716.6522388394084
 20
2384.439089682054
 30
0.0
 10
715.7486001314434
 20
2383.318442103402
 30
0.0
 10
714.672656916058
 20
2381.984111083204
 30
0.0
 10
713.5963579691307
 20
2380.650066818397
 30
0.0
 10
712.5196770468702
 20
2379.316330987793
 30
0.0
 10
711.4627181270621
 20
2378.007025738969
 30
0.0
 10
710.4053910239674
 20
2376.698017615765
 30
0.0
 10
709.3476725720972
 20
2375.389325876151
 30
0.0
  0
LINE
  5
99
330
1F
100
AcDbEntity
  8
0
  6
Continuous
 62
     7
370
    15
100
AcDbLine
 10
2237.0516801782
 20
2375.3885518198
 30
0.0
 11
2237.0165677348
 21
2375.3814333395
 31
0.0
  0
SPLINE
  5
9A
330
1F
100
AcDbEntity
  8
0
  6
Continuous
 62
     7
370
    15
100
AcDbSpline
210
0.0
220
0.0
230
1.0
 70
     8
 71
     3
 72
    14
 73
    10
 74
     0
 42
0.000000001
 43
0.00000001
 40
0.0001147639300888
 40
0.0001147639300888
 40
0.0001147639300888
 40
0.0001147639300888
 40
0.0046674676362053
 40
0.0046674676362053
 40
0.0046674676362053
 40
0.0083577164725375
 40
0.0083577164725375
 40
0.0083577164725375
 40
0.0113080374522362
 40
0.0113080374522362
 40
0.0113080374522362
 40
0.0113080374522362
 10
2237.0516806307
 20
2375.388551902848
 30
0.0
 10
2235.979280588143
 20
2376.462316535377
 30
0.0
 10
2234.907088695516
 20
2377.536289082524
 30
0.0
 10
2233.835074957688
 20
2378.610439390096
 30
0.0
 10
2232.966141300804
 20
2379.481104869338
 30
0.0
 10
2232.097324651487
 20
2380.351887134849
 30
0.0
 10
2231.228608391507
 20
2381.222769524415
 30
0.0
 10
2230.534077500698
 20
2381.919032216481
 30
0.0
 10
2229.839610759578
 20
2382.615358903034
 30
0.0
 10
2229.145199405714
 20
2383.311740814255
 30
0.0
  0
LWPOLYLINE
  5
9B
330
1F
100
AcDbEntity
  8
0
  6
Continuous
 62
     7
370
    15
100
AcDbPolyline
 90
        4
 70
   128
 43
0.0
 10
2229.081813895
 20
2371.846412678
 10
2230.9100008653
 20
2372.2996012128
 10
2232.8319085661
 20
2372.7760193793
 10
2236.5909211578
 20
2373.7078263532
  0
LINE
  5
9C
330
1F
100
AcDbEntity
  8
0
  6
Continuous
 62
     7
370
    15
100
AcDbLine
 10
717.5720350407
 20
2371.8482204082
 30
0.0
 11
717.5807228196
 21
2371.84661548
 31
0.0
  0
LWPOLYLINE
  5
9D
330
1F
100
AcDbEntity
  8
0
  6
Continuous
 62
     7
370
    15
100
AcDbPolyline
 90
        4
 70
   128
 43
0.0
 10
709.858879817
 20
2373.7556336238
 10
711.8316307755
 20
2373.2679166891
 10
713.8545428608
 20
2372.7678039224
 10
717.5807227264
 20
2371.8466154984
  0
SPLINE
  5
9E
330
1F
100
AcDbEntity
  8
0
  6
Continuous
 62
     7
370
    15
100
AcDbSpline
210
0.0
220
0.0
230
1.0
 70
     8
 71
     3
 72
    22
 73
    18
 74
     0
 42
0.000000001
 43
0.00000001
 40
0.0
 40
0.0
 40
0.0
 40
0.0
 40
0.1250000000000002
 40
0.1250000000000002
 40
0.2500000000000002
 40
0.2500000000000002
 40
0.3750000000000002
 40
0.3750000000000002
 40
0.5000000000000002
 40
0.5000000000000002
 40
0.6250000000000002
 40
0.6250000000000002
 40
0.7500000000000001
 40
0.7500000000000001
 40
0.8750000000000001
 40
0.8750000000000001
 40
1.0
 40
1.0
 40
1.0
 40
1.0
 10
709.3593989032761
 20
2375.379911991898
 30
0.0
 10
709.3034650847572
 20
2375.314315932178
 30
0.0
 10
709.2549700545869
 20
2375.243533158342
 30
0.0
 10
709.1726904958343
 20
2375.091710675982
 30
0.0
 10
709.1391656775705
 20
2375.010946581424
 30
0.0
 10
709.0957707914407
 20
2374.844395492363
 30
0.0
 10
709.086191938043
 20
2374.756493156725
 30
0.0
 10
709.0946331649831
 20
2374.585132010886
 30
0.0
 10
709.1125834824086
 20
2374.499083061006
 30
0.0
 10
709.1701525343244
 20
2374.33646069767
 30
0.0
 10
709.2091442924724
 20
2374.259818819515
 30
0.0
 10
709.3026348366254
 20
2374.113628760918
 30
0.0
 10
709.3564295674661
 20
2374.046244581418
 30
0.0
 10
709.4811712902334
 20
2373.928628461095
 30
0.0
 10
709.5535250195437
 20
2373.877907583075
 30
0.0
 10
709.7067502399067
 20
2373.800077155534
 30
0.0
 10
709.7888536701425
 20
2373.771644013937
 30
0.0
 10
709.8735956925057
 20
2373.751853962534
 30
0.0
  0
SPLINE
  5
9F
330
1F
100
AcDbEntity
  8
0
  6
Continuous
 62
     7
370
    15
100
AcDbSpline
210
0.0
220
0.0
230
1.0
 70
     8
 71
     3
 72
    20
 73
    16
 74
     0
 42
0.000000001
 43
0.00000001
 40
0.0
 40
0.0
 40
0.0
 40
0.0
 40
0.124999999999994
 40
0.124999999999994
 40
0.249999999999988
 40
0.249999999999988
 40
0.374999999999982
 40
0.374999999999982
 40
0.499999999999976
 40
0.499999999999976
 40
0.62499999999997
 40
0.62499999999997
 40
0.749999999999964
 40
0.749999999999964
 40
1.0
 40
1.0
 40
1.0
 40
1.0
 10
2236.588412171067
 20
2373.707294605352
 30
0.0
 10
2236.674705311685
 20
2373.728685775163
 30
0.0
 10
2236.757070448105
 20
2373.758864374213
 30
0.0
 10
2236.911764490535
 20
2373.841673855991
 30
0.0
 10
2236.984454084674
 20
2373.895438708474
 30
0.0
 10
2237.10869976094
 20
2374.019378233563
 30
0.0
 10
2237.162243842894
 20
2374.090907088501
 30
0.0
 10
2237.252610703973
 20
2374.243051695242
 30
0.0
 10
2237.290084885701
 20
2374.32338363332
 30
0.0
 10
2237.342731782701
 20
2374.493313456501
 30
0.0
 10
2237.357011534971
 20
2374.580162035677
 30
0.0
 10
2237.357100882213
 20
2374.758312005806
 30
0.0
 10
2237.34272410332
 20
2374.845588535654
 30
0.0
 10
2237.261578912127
 20
2375.098703382328
 30
0.0
 10
2237.163681453537
 20
2375.251771341663
 30
0.0
 10
2237.041377983129
 20
2375.37842784719
 30
0.0
  0
LINE
  5
A0
330
1F
100
AcDbEntity
  8
0
  6
Continuous
 62
     7
370
    15
100
AcDbLine
 10
2226.3769302405
 20
2383.35951287
 30
0.0
 11
2226.2665645741
 21
2383.3346886786
 31
0.0
  0
SPLINE
  5
A1
330
1F
100
AcDbEntity
  8
0
  6
Continuous
 62
     7
370
    15
100
AcDbSpline
210
0.0
220
0.0
230
1.0
 70
     8
 71
     3
 72
    18
 73
    14
 74
     0
 42
0.000000001
 43
0.00000001
 40
0.0
 40
0.0
 40
0.0
 40
0.0
 40
0.1249999999999857
 40
0.1249999999999857
 40
0.2499999999999714
 40
0.2499999999999714
 40
0.4999999999999422
 40
0.4999999999999422
 40
0.6249999999999823
 40
0.6249999999999823
 40
0.7500000000000225
 40
0.7500000000000225
 40
1.0
 40
1.0
 40
1.0
 40
1.0
 10
2229.147790364499
 20
2383.313092471109
 30
0.0
 10
2229.058033975562
 20
2383.400957559355
 30
0.0
 10
2228.958516915518
 20
2383.481067188648
 30
0.0
 10
2228.749181674882
 20
2383.618172808073
 30
0.0
 10
2228.63844206032
 20
2383.676249083316
 30
0.0
 10
2228.287991488159
 20
2383.819021138157
 30
0.0
 10
2228.0388763992
 20
2383.869073070633
 30
0.0
 10
2227.659580280808
 20
2383.875906260348
 30
0.0
 10
2227.534772062649
 20
2383.866552237499
 30
0.0
 10
2227.288398541279
 20
2383.82461455148
 30
0.0
 10
2227.165587831118
 20
2383.791510237229
 30
0.0
 10
2226.812117748119
 20
2383.657946653081
 30
0.0
 10
2226.59690385139
 20
2383.524017937239
 30
0.0
 10
2226.409541201873
 20
2383.353139862126
 30
0.0
  0
SPLINE
  5
A2
330
1F
100
AcDbEntity
  8
0
  6
Continuous
 62
     7
370
    15
100
AcDbSpline
210
0.0
220
0.0
230
1.0
 70
     8
 71
     3
 72
    40
 73
    36
 74
     0
 42
0.000000001
 43
0.00000001
 40
0.0
 40
0.0
 40
0.0
 40
0.0
 40
0.0624999999999998
 40
0.0624999999999998
 40
0.1249999999999995
 40
0.1249999999999995
 40
0.1874999999999993
 40
0.1874999999999993
 40
0.249999999999999
 40
0.249999999999999
 40
0.2812499999999991
 40
0.2812499999999991
 40
0.2968749999999989
 40
0.2968749999999989
 40
0.3124999999999987
 40
0.3124999999999987
 40
0.3749999999999988
 40
0.3749999999999988
 40
0.437499999999999
 40
0.437499999999999
 40
0.4999999999999992
 40
0.4999999999999992
 40
0.5624999999999996
 40
0.5624999999999996
 40
0.6249999999999998
 40
0.6249999999999998
 40
0.7500000000000003
 40
0.7500000000000003
 40
0.7812500000000004
 40
0.7812500000000004
 40
0.8125000000000006
 40
0.8125000000000006
 40
0.8750000000000004
 40
0.8750000000000004
 40
1.0
 40
1.0
 40
1.0
 40
1.0
 10
2226.384722502393
 20
2383.33157415498
 30
0.0
 10
2215.921870176234
 20
2374.115971980472
 30
0.0
 10
2205.859051730651
 20
2364.569682613346
 30
0.0
 10
2186.467740890567
 20
2344.87007474459
 30
0.0
 10
2177.139324151134
 20
2334.716693702851
 30
0.0
 10
2159.161993953845
 20
2313.848221615624
 30
0.0
 10
2150.513136473409
 20
2303.133084296513
 30
0.0
 10
2133.848868243675
 20
2281.179172208157
 30
0.0
 10
2125.833499072702
 20
2269.940363068273
 30
0.0
 10
2114.256479154611
 20
2252.71343639441
 30
0.0
 10
2110.471864931283
 20
2246.909631163924
 30
0.0
 10
2104.90334341047
 20
2238.114314832584
 30
0.0
 10
2103.065239170726
 20
2235.167605523665
 30
0.0
 10
2099.424672944767
 20
2229.24472330954
 30
0.0
 10
2097.621118791486
 20
2226.266685036728
 30
0.0
 10
2088.712939467746
 20
2211.340483645839
 30
0.0
 10
2081.92511283397
 20
2199.266808133944
 30
0.0
 10
2068.964526050168
 20
2174.878464715412
 30
0.0
 10
2062.791860890446
 20
2162.56375959013
 30
0.0
 10
2051.011352132084
 20
2137.713043669035
 30
0.0
 10
2045.403575118582
 20
2125.177006784153
 30
0.0
 10
2034.712069794562
 20
2099.899602769234
 30
0.0
 10
2029.628387986712
 20
2087.158217418747
 30
0.0
 10
2019.952104956141
 20
2061.48303388217
 30
0.0
 10
2015.358578459216
 20
2048.549598232574
 30
0.0
 10
2002.284874035624
 20
2009.472326890952
 30
0.0
 10
1994.514615046019
 20
1983.050334171618
 30
0.0
 10
1985.930403430458
 20
1949.580635893139
 30
0.0
 10
1984.270017275955
 20
1942.864575852686
 30
0.0
 10
1981.06092461033
 20
1929.388697990447
 30
0.0
 10
1979.511735945536
 20
1922.626420741747
 30
0.0
 10
1975.039456150487
 20
1902.319674508014
 30
0.0
 10
1972.288271584493
 20
1888.742076048646
 30
0.0
 10
1964.697983548605
 20
1847.894767140461
 30
0.0
 10
1960.521497000491
 20
1820.510655167276
 30
0.0
 10
1957.163286022296
 20
1792.985267036667
 30
0.0
  0
SPLINE
  5
A3
330
1F
100
AcDbEntity
  8
0
  6
Continuous
 62
     7
370
    15
100
AcDbSpline
210
0.0
220
0.0
230
1.0
 70
     8
 71
     3
 72
    34
 73
    30
 74
     0
 42
0.000000001
 43
0.00000001
 40
0.0
 40
0.0
 40
0.0
 40
0.0
 40
0.1249999999999797
 40
0.1249999999999797
 40
0.1562499999999769
 40
0.1562499999999769
 40
0.1874999999999741
 40
0.1874999999999741
 40
0.2499999999999707
 40
0.2499999999999707
 40
0.3749999999999707
 40
0.3749999999999707
 40
0.4062499999999728
 40
0.4062499999999728
 40
0.4374999999999749
 40
0.4374999999999749
 40
0.499999999999979
 40
0.499999999999979
 40
0.6249999999999851
 40
0.6249999999999851
 40
0.687499999999987
 40
0.687499999999987
 40
0.7499999999999888
 40
0.7499999999999888
 40
0.8749999999999952
 40
0.8749999999999952
 40
0.9374999999999976
 40
0.9374999999999976
 40
1.0
 40
1.0
 40
1.0
 40
1.0
 10
1957.162705068059
 20
1792.980440759747
 30
0.0
 10
1956.880097313039
 20
1790.667650887592
 30
0.0
 10
1956.398838557475
 20
1788.395012992984
 30
0.0
 10
1955.547723569194
 20
1785.604653762147
 30
0.0
 10
1955.364934516534
 20
1785.049121807331
 30
0.0
 10
1954.973827149759
 20
1783.943217953929
 30
0.0
 10
1954.764935388428
 20
1783.391493690136
 30
0.0
 10
1954.104512953351
 20
1781.757151401048
 30
0.0
 10
1953.619291112269
 20
1780.694333572509
 30
0.0
 10
1952.032631354453
 20
1777.583834097037
 30
0.0
 10
1950.801174898065
 20
1775.613525829111
 30
0.0
 10
1949.04221762703
 20
1773.281345190015
 30
0.0
 10
1948.679365929026
 20
1772.821490957651
 30
0.0
 10
1947.931153536593
 20
1771.915177483484
 30
0.0
 10
1947.545643772618
 20
1771.468676694749
 30
0.0
 10
1946.366817869101
 20
1770.162589458426
 30
0.0
 10
1945.547569346598
 20
1769.331748140825
 30
0.0
 10
1942.992237538963
 20
1766.95587725716
 30
0.0
 10
1941.159303132843
 20
1765.526622010278
 30
0.0
 10
1938.212252662614
 20
1763.619005505202
 30
0.0
 10
1937.192268488128
 20
1763.020735674247
 30
0.0
 10
1935.122051242902
 20
1761.926024248718
 30
0.0
 10
1934.06875451276
 20
1761.42709297688
 30
0.0
 10
1930.855485863149
 20
1760.072415213827
 30
0.0
 10
1928.642542877853
 20
1759.357700121505
 30
0.0
 10
1925.214298750366
 20
1758.575378075664
 30
0.0
 10
1924.051999571077
 20
1758.363422190507
 30
0.0
 10
1921.723806123202
 20
1758.044380790984
 30
0.0
 10
1920.553866129845
 20
1757.936203642004
 30
0.0
 10
1919.378050179575
 20
1757.879657261771
 30
0.0
  0
SPLINE
  5
A4
330
1F
100
AcDbEntity
  8
0
  6
Continuous
 62
     7
370
    15
100
AcDbSpline
210
0.0
220
0.0
230
1.0
 70
     8
 71
     3
 72
     9
 73
     5
 74
     0
 42
0.000000001
 43
0.00000001
 40
0.0
 40
0.0
 40
0.0
 40
0.0
 40
0.8441865084772912
 40
1.0
 40
1.0
 40
1.0
 40
1.0
 10
1944.028153695716
 20
1744.033624577092
 30
0.0
 10
1944.215007984608
 20
1744.036759707897
 30
0.0
 10
1944.436350409551
 20
1744.040473497176
 30
0.0
 10
1944.517036977422
 20
1744.045619076013
 30
0.0
 10
1944.529609033281
 20
1744.046420826617
 30
0.0
  0
LINE
  5
A5
330
1F
100
AcDbEntity
  8
0
  6
Continuous
 62
     7
370
    15
100
AcDbLine
 10
1944.6869970547
 20
1744.0554915275
 30
0.0
 11
1944.9061157235
 21
1744.068119934
 31
0.0
  0
SPLINE
  5
A6
330
1F
100
AcDbEntity
  8
0
  6
Continuous
 62
     7
370
    15
100
AcDbSpline
210
0.0
220
0.0
230
1.0
 70
     8
 71
     3
 72
    27
 73
    23
 74
     0
 42
0.000000001
 43
0.00000001
 40
0.0
 40
0.0
 40
0.0
 40
0.0
 40
0.125000000000015
 40
0.125000000000015
 40
0.2500000000000299
 40
0.2500000000000299
 40
0.3750000000000449
 40
0.3750000000000449
 40
0.4375000000000546
 40
0.4375000000000546
 40
0.5000000000000643
 40
0.5625000000000739
 40
0.5625000000000739
 40
0.6250000000000837
 40
0.6250000000000837
 40
0.7500000000000755
 40
0.7500000000000755
 40
0.8125000000000562
 40
0.8125000000000562
 40
0.8750000000000367
 40
0.8750000000000367
 40
1.0
 40
1.0
 40
1.0
 40
1.0
 10
1945.223531410531
 20
1744.120502230304
 30
0.0
 10
1945.652756740898
 20
1744.14257778537
 30
0.0
 10
1946.076997799064
 20
1744.118692338599
 30
0.0
 10
1946.915844840403
 20
1743.982074431542
 30
0.0
 10
1947.334511503147
 20
1743.867034214237
 30
0.0
 10
1948.126148160547
 20
1743.555341946002
 30
0.0
 10
1948.502653608811
 20
1743.359040179434
 30
0.0
 10
1949.03776504249
 20
1743.002485060257
 30
0.0
 10
1949.210414765297
 20
1742.873501201544
 30
0.0
 10
1949.537642017658
 20
1742.600758050316
 30
0.0
 10
1949.848857738051
 20
1742.31191901246
 30
0.0
 10
1950.128404080006
 20
1741.991243750191
 30
0.0
 10
1950.391750365279
 20
1741.65428308336
 30
0.0
 10
1950.515495016981
 20
1741.477112805846
 30
0.0
 10
1950.85344539518
 20
1740.933521857974
 30
0.0
 10
1951.038004393036
 20
1740.551415950604
 30
0.0
 10
1951.253700369257
 20
1739.948674352152
 30
0.0
 10
1951.315547351633
 20
1739.741533093734
 30
0.0
 10
1951.415670368697
 20
1739.326108345853
 30
0.0
 10
1951.454302095195
 20
1739.117252131462
 30
0.0
 10
1951.536812152176
 20
1738.487342457511
 30
0.0
 10
1951.547692677767
 20
1738.062986728151
 30
0.0
 10
1951.512244253258
 20
1737.633994608789
 30
0.0
  0
SPLINE
  5
A7
330
1F
100
AcDbEntity
  8
0
  6
Continuous
 62
     7
370
    15
100
AcDbSpline
210
0.0
220
0.0
230
1.0
 70
     8
 71
     3
 72
    36
 73
    32
 74
     0
 42
0.000000001
 43
0.00000001
 40
0.0
 40
0.0
 40
0.0
 40
0.0
 40
0.1250000000000011
 40
0.1250000000000011
 40
0.2500000000000022
 40
0.2500000000000022
 40
0.2812500000000024
 40
0.2812500000000024
 40
0.2968750000000025
 40
0.2968750000000025
 40
0.3125000000000026
 40
0.3125000000000026
 40
0.3750000000000024
 40
0.3750000000000024
 40
0.4375000000000023
 40
0.4375000000000023
 40
0.5000000000000022
 40
0.5000000000000022
 40
0.6250000000000019
 40
0.6250000000000019
 40
0.7500000000000013
 40
0.7500000000000013
 40
0.7656250000000013
 40
0.7656250000000013
 40
0.7812500000000012
 40
0.7812500000000012
 40
0.812500000000001
 40
0.812500000000001
 40
0.8750000000000006
 40
0.8750000000000006
 40
1.0
 40
1.0
 40
1.0
 40
1.0
 10
989.368911357757
 20
1793.299272084379
 30
0.0
 10
986.1668613841576
 20
1820.874651249541
 30
0.0
 10
982.154033004873
 20
1848.294789090237
 30
0.0
 10
972.276363723394
 20
1902.780456317617
 30
0.0
 10
966.412073758125
 20
1929.846091193272
 30
0.0
 10
957.7503648880307
 20
1963.423219290452
 30
0.0
 10
955.951312331283
 20
1970.125871666059
 30
0.0
 10
953.1489317814476
 20
1980.15997511247
 30
0.0
 10
952.1979544056852
 20
1983.499694487663
 30
0.0
 10
950.26403049192
 20
1990.161515472991
 30
0.0
 10
949.2807741119974
 20
1993.484731724605
 30
0.0
 10
944.2821306929934
 20
2010.061921799976
 30
0.0
 10
940.0197130314874
 20
2023.19924754414
 30
0.0
 10
930.9442626549941
 20
2049.213898114558
 30
0.0
 10
926.1288521539725
 20
2062.09010014813
 30
0.0
 10
915.9353736650615
 20
2087.576816849608
 30
0.0
 10
910.5606443037071
 20
2100.188908019933
 30
0.0
 10
893.6285722726852
 20
2137.643698012706
 30
0.0
 10
881.2652562682778
 20
2162.105815509744
 30
0.0
 10
854.4783802513537
 20
2210.057201451029
 30
0.0
 10
840.0547583042522
 20
2233.546440649709
 30
0.0
 10
822.6858247285328
 20
2259.432411866727
 30
0.0
 10
820.7400382137603
 20
2262.301120532693
 30
0.0
 10
816.8166454714421
 20
2268.023512567957
 30
0.0
 10
814.8393066288033
 20
2270.876776672599
 30
0.0
 10
808.8690572800225
 20
2279.400625922564
 30
0.0
 10
804.8348956601538
 20
2285.039709497794
 30
0.0
 10
792.5722249782423
 20
2301.827962266367
 30
0.0
 10
784.1836424451309
 20
2312.848223979267
 30
0.0
 10
758.387756073329
 20
2345.401557127657
 30
0.0
 10
740.3520888564744
 20
2366.428606301358
 30
0.0
 10
721.483962447932
 20
2386.785274454039
 30
0.0
  0
SPLINE
  5
A8
330
1F
100
AcDbEntity
  8
0
  6
Continuous
 62
     7
370
    15
100
AcDbSpline
210
0.0
220
0.0
230
1.0
 70
     8
 71
     3
 72
     8
 73
     4
 74
     0
 42
0.000000001
 43
0.00000001
 40
0.0
 40
0.0
 40
0.0
 40
0.0
 40
1.0
 40
1.0
 40
1.0
 40
1.0
 10
1951.51245916776
 20
1737.637743984008
 30
0.0
 10
1949.750849973668
 20
1716.31985357763
 30
0.0
 10
1948.454873736657
 20
1694.965031505645
 30
0.0
 10
1947.595990135954
 20
1673.591420214156
 30
0.0
  0
SPLINE
  5
A9
330
1F
100
AcDbEntity
  8
0
  6
Continuous
 62
     7
370
    15
100
AcDbSpline
210
0.0
220
0.0
230
1.0
 70
    24
 71
     3
 72
    32
 73
    28
 74
     0
 42
0.000000001
 43
0.00000001
 40
0.0
 40
0.0
 40
0.0
 40
0.0
 40
0.0396409398964867
 40
0.0793856825153977
 40
0.1191190041221789
 40
0.1587732164553378
 40
0.1983380425292785
 40
0.2382403302811368
 40
0.2783065337468217
 40
0.3184565913158615
 40
0.3586065272587983
 40
0.3986724494608758
 40
0.4385745489336055
 40
0.4805602651945251
 40
0.5226907686130277
 40
0.5648707435723762
 40
0.60700188368497
 40
0.6489881357895114
 40
0.6907711117231118
 40
0.7326968270717327
 40
0.7746710038992796
 40
0.8165967734696766
 40
0.8583797950349665
 40
0.8956891455429817
 40
0.9330663195086292
 40
0.970443440166793
 40
1.0
 40
1.0
 40
1.0
 40
1.0
 10
1703.070686495901
 20
1673.591420214164
 30
0.0
 10
1708.073510586129
 20
1673.591420214164
 30
0.0
 10
1718.092259030146
 20
1673.591420214164
 30
0.0
 10
1733.100321984611
 20
1673.591420214163
 30
0.0
 10
1748.042627835942
 20
1673.591420214163
 30
0.0
 10
1762.837265695069
 20
1673.591420214164
 30
0.0
 10
1777.438734188609
 20
1673.591420214164
 30
0.0
 10
1791.791287197979
 20
1673.591420214163
 30
0.0
 10
1805.888389435111
 20
1673.591420214164
 30
0.0
 10
1819.628248209923
 20
1673.591420214163
 30
0.0
 10
1832.931061622018
 20
1673.591420214164
 30
0.0
 10
1845.714350616101
 20
1673.591420214164
 30
0.0
 10
1858.132175450981
 20
1673.591420214164
 30
0.0
 10
1870.103017252318
 20
1673.591420214163
 30
0.0
 10
1881.568176361129
 20
1673.591420214164
 30
0.0
 10
1892.277371927725
 20
1673.591420214163
 30
0.0
 10
1902.158650859327
 20
1673.591420214164
 30
0.0
 10
1911.142555096443
 20
1673.591420214164
 30
0.0
 10
1919.183568980135
 20
1673.591420214164
 30
0.0
 10
1926.282857928676
 20
1673.591420214164
 30
0.0
 10
1932.427263967582
 20
1673.591420214164
 30
0.0
 10
1937.576935993448
 20
1673.591420214164
 30
0.0
 10
1941.546554563128
 20
1673.591420214164
 30
0.0
 10
1944.442299268608
 20
1673.591420214164
 30
0.0
 10
1946.366113102711
 20
1673.591420214164
 30
0.0
 10
1947.465079115399
 20
1673.591420214163
 30
0.0
 10
1947.519652235422
 20
1673.591420214164
 30
0.0
 10
1947.543750621697
 20
1673.591420214164
 30
0.0
  0
LINE
  5
AA
330
1F
100
AcDbEntity
  8
0
  6
Continuous
 62
     7
370
    15
100
AcDbLine
 10
1027.9128295094
 20
1757.8895449636
 30
0.0
 11
1028.7035859269
 21
1757.8633248834
 31
0.0
  0
SPLINE
  5
AB
330
1F
100
AcDbEntity
  8
0
  6
Continuous
 62
     7
370
    15
100
AcDbSpline
210
0.0
220
0.0
230
1.0
 70
     8
 71
     3
 72
     9
 73
     5
 74
     0
 42
0.000000001
 43
0.00000001
 40
0.0
 40
0.0
 40
0.0
 40
0.0
 40
0.3937147252233908
 40
1.0
 40
1.0
 40
1.0
 40
1.0
 10
990.2384169745407
 20
1793.234796131267
 30
0.0
 10
989.9897747358548
 20
1793.240766947874
 30
0.0
 10
989.3582458070226
 20
1793.255932285171
 30
0.0
 10
989.3635493864033
 20
1793.282526179161
 30
0.0
 10
989.3667648684853
 20
1793.298649665487
 30
0.0
  0
LINE
  5
AC
330
1F
100
AcDbEntity
  8
0
  6
Continuous
 62
     7
370
    15
100
AcDbLine
 10
1001.5864299464
 20
1744.0922032992
 30
0.0
 11
1001.4831538707
 21
1744.0948493793
 31
0.0
  0
SPLINE
  5
AD
330
1F
100
AcDbEntity
  8
0
  6
Continuous
 62
     7
370
    15
100
AcDbSpline
210
0.0
220
0.0
230
1.0
 70
    24
 71
     3
 72
    29
 73
    25
 74
     0
 42
0.000000001
 43
0.00000001
 40
0.0
 40
0.0
 40
0.0
 40
0.0
 40
0.0401651192182535
 40
0.0835369365032681
 40
0.1268632100565711
 40
0.1700559249815521
 40
0.2154321859546868
 40
0.2609628086088009
 40
0.3065448281030253
 40
0.3520735997783567
 40
0.397448303041506
 40
0.4429361299907572
 40
0.4885780144107756
 40
0.5342720604164712
 40
0.5799137479461173
 40
0.6254014092022904
 40
0.6710892836428431
 40
0.716933162375909
 40
0.7628307403632825
 40
0.8086760711461969
 40
0.8543651675964441
 40
0.9028888252615892
 40
0.9514752176631126
 40
1.0
 40
1.0
 40
1.0
 40
1.0
 10
998.837139175175
 20
1673.591420214164
 30
0.0
 10
999.172646661424
 20
1673.591420214164
 30
0.0
 10
999.8704478411709
 20
1673.591420214164
 30
0.0
 10
1002.113312294588
 20
1673.591420214163
 30
0.0
 10
1005.267979557517
 20
1673.591420214164
 30
0.0
 10
1009.447356394232
 20
1673.591420214163
 30
0.0
 10
1014.685671224776
 20
1673.591420214164
 30
0.0
 10
1021.004638723087
 20
1673.591420214164
 30
0.0
 10
1028.280817406002
 20
1673.591420214164
 30
0.0
 10
1036.467291425092
 20
1673.591420214164
 30
0.0
 10
1045.54278709348
 20
1673.591420214164
 30
0.0
 10
1055.497990347465
 20
1673.591420214164
 30
0.0
 10
1066.279654501545
 20
1673.591420214164
 30
0.0
 10
1077.822498484836
 20
1673.591420214164
 30
0.0
 10
1090.049718522709
 20
1673.591420214164
 30
0.0
 10
1102.927144068498
 20
1673.591420214164
 30
0.0
 10
1116.433561634989
 20
1673.591420214163
 30
0.0
 10
1130.515479888251
 20
1673.591420214164
 30
0.0
 10
1145.079488467189
 20
1673.591420214164
 30
0.0
 10
1160.02750040725
 20
1673.591420214164
 30
0.0
 10
1175.605089910562
 20
1673.591420214164
 30
0.0
 10
1191.780648964903
 20
1673.591420214164
 30
0.0
 10
1208.488146830829
 20
1673.591420214164
 30
0.0
 10
1219.72382813387
 20
1673.591420214164
 30
0.0
 10
1225.33810466904
 20
1673.591420214164
 30
0.0
  0
SPLINE
  5
AE
330
1F
100
AcDbEntity
  8
0
  6
Continuous
 62
     7
370
    15
100
AcDbSpline
210
0.0
220
0.0
230
1.0
 70
     8
 71
     3
 72
    31
 73
    27
 74
     0
 42
0.000000001
 43
0.00000001
 40
0.0
 40
0.0
 40
0.0
 40
0.0
 40
0.2499999999999952
 40
0.2499999999999952
 40
0.3749999999999928
 40
0.3749999999999928
 40
0.4374999999999916
 40
0.4374999999999916
 40
0.4687499999999911
 40
0.4687499999999911
 40
0.4843749999999911
 40
0.4843749999999911
 40
0.4999999999999911
 40
0.6249999999999933
 40
0.6249999999999933
 40
0.6874999999999946
 40
0.6874999999999946
 40
0.7187499999999952
 40
0.7187499999999952
 40
0.749999999999996
 40
0.749999999999996
 40
0.8749999999999979
 40
0.8749999999999979
 40
0.937499999999999
 40
0.937499999999999
 40
1.0
 40
1.0
 40
1.0
 40
1.0
 10
778.6247471063482
 20
2298.767016605369
 30
0.0
 10
812.4264175860916
 20
2254.084224555145
 30
0.0
 10
841.8975046935348
 20
2207.126396687206
 30
0.0
 10
879.7757305030416
 20
2133.365080233622
 30
0.0
 10
891.346547004884
 20
2108.223603365899
 30
0.0
 10
907.13654754777
 20
2069.688585252381
 30
0.0
 10
912.138770988056
 20
2056.706407217222
 30
0.0
 10
919.2524734036401
 20
2037.028449855103
 30
0.0
 10
921.5587992596903
 20
2030.435031710129
 30
0.0
 10
924.9211166180384
 20
2020.493856295466
 30
0.0
 10
926.0261089650725
 20
2017.170346819532
 30
0.0
 10
928.2016535941904
 20
2010.512752842591
 30
0.0
 10
937.8336583374133
 20
1980.515522339941
 30
0.0
 10
946.0569090190072
 20
1950.178848117208
 30
0.0
 10
955.4710388864976
 20
1909.356422535865
 30
0.0
 10
958.3507056378287
 20
1895.686690702992
 30
0.0
 10
962.2974835772287
 20
1875.092284370793
 30
0.0
 10
963.550950470093
 20
1868.212512864415
 30
0.0
 10
965.9361291595743
 20
1854.423632578436
 30
0.0
 10
967.0682853663773
 20
1847.511650496567
 30
0.0
 10
972.4259156222582
 20
1812.92084083391
 30
0.0
 10
975.7393381363942
 20
1785.158036669065
 30
0.0
 10
979.463683841709
 20
1743.398360158992
 30
0.0
 10
980.4992492979671
 20
1729.45938498623
 30
0.0
 10
982.2111055299032
 20
1701.548133999193
 30
0.0
 10
982.8877823336226
 20
1687.575893965288
 30
0.0
 10
983.4324717447156
 20
1673.591420214164
 30
0.0
  0
SPLINE
  5
AF
330
1F
100
AcDbEntity
  8
0
  6
Continuous
 62
     7
370
    15
100
AcDbSpline
210
0.0
220
0.0
230
1.0
 70
    24
 71
     3
 72
     8
 73
     4
 74
     0
 42
0.000000001
 43
0.00000001
 40
-0.0018074087174452
 40
-0.0018074087174452
 40
-0.0018074087174452
 40
-0.0018074087174452
 40
0.3720139163515013
 40
0.3720139163515013
 40
0.3720139163515013
 40
0.3720139163515013
 10
983.4292033203213
 20
1673.591420214171
 30
0.0
 10
983.4302345418752
 20
1673.591420214166
 30
0.0
 10
983.4313240152055
 20
1673.591420214161
 30
0.0
 10
983.432471744716
 20
1673.591420214157
 30
0.0
  0
ARC
  5
B0
330
1F
100
AcDbEntity
  8
0
  6
Continuous
 62
     7
370
    15
100
AcDbCircle
 10
1420.4284992394
 20
1724.9380979622
 30
0.0
 40
1.000000000000227
100
AcDbArc
 50
179.9999999779
 51
269.9999985278
  0
LINE
  5
B1
330
1F
100
AcDbEntity
  8
0
  6
Continuous
 62
     7
370
    15
100
AcDbLine
 10
1419.4284992394
 20
1728.5774178484
 30
0.0
 11
1419.4284992394
 21
1724.9380979625
 31
0.0
  0
SPLINE
  5
B2
330
1F
100
AcDbEntity
  8
0
  6
Continuous
 62
     7
370
    15
100
AcDbSpline
210
0.0
220
0.0
230
1.0
 70
     8
 71
     3
 72
    20
 73
    16
 74
     0
 42
0.000000001
 43
0.00000001
 40
0.0
 40
0.0
 40
0.0
 40
0.0
 40
0.1250000000000002
 40
0.1250000000000002
 40
0.2500000000000004
 40
0.2500000000000004
 40
0.3750000000000007
 40
0.3750000000000007
 40
0.5000000000000009
 40
0.5000000000000009
 40
0.6250000000000011
 40
0.6250000000000011
 40
0.7500000000000013
 40
0.7500000000000013
 40
1.0
 40
1.0
 40
1.0
 40
1.0
 10
1416.453272659315
 20
1731.577338253183
 30
0.0
 10
1416.650052569224
 20
1731.575713209862
 30
0.0
 10
1416.843574859746
 20
1731.554938710662
 30
0.0
 10
1417.224340109537
 20
1731.476477549601
 30
0.0
 10
1417.413577758578
 20
1731.41782518416
 30
0.0
 10
1417.773668439852
 20
1731.266060294808
 30
0.0
 10
1417.944499247687
 20
1731.173543626743
 30
0.0
 10
1418.267836379025
 20
1730.955430635634
 30
0.0
 10
1418.420763632017
 20
1730.828816908782
 30
0.0
 10
1418.694856683379
 20
1730.552644232219
 30
0.0
 10
1418.817884623181
 20
1730.402073908555
 30
0.0
 10
1419.035182068963
 20
1730.075322984234
 30
0.0
 10
1419.127422970921
 20
1729.901638970059
 30
0.0
 10
1419.349786882694
 20
1729.362930803735
 30
0.0
 10
1419.428498136718
 20
1728.971171374359
 30
0.0
 10
1419.428499259945
 20
1728.577416831175
 30
0.0
  0
SPLINE
  5
B3
330
1F
100
AcDbEntity
  8
0
  6
Continuous
 62
     7
370
    15
100
AcDbSpline
210
0.0
220
0.0
230
1.0
 70
     8
 71
     3
 72
    11
 73
     7
 74
     0
 42
0.000000001
 43
0.00000001
 40
13.74567090989615
 40
13.74567090989615
 40
13.74567090989615
 40
13.74567090989615
 40
108.0227734084
 40
216.0455468167
 40
324.0683202251
 40
429.4913297407911
 40
429.4913297407911
 40
429.4913297407911
 40
429.4913297407911
 10
1001.006906984486
 20
1744.158441851123
 30
0.0
 10
1032.393723055667
 20
1742.679536164053
 30
0.0
 10
1099.75534779513
 20
1739.683214956988
 30
0.0
 10
1203.083036875423
 20
1735.840234032314
 30
0.0
 10
1310.278488369814
 20
1732.933186067356
 30
0.0
 10
1381.328559976121
 20
1731.867417433331
 30
0.0
 10
1416.453272161171
 20
1731.577348652482
 30
0.0
  0
SPLINE
  5
B4
330
1F
100
AcDbEntity
  8
0
  6
Continuous
 62
     7
370
    15
100
AcDbSpline
210
0.0
220
0.0
230
1.0
 70
     8
 71
     3
 72
    27
 73
    23
 74
     0
 42
0.000000001
 43
0.00000001
 40
0.0
 40
0.0
 40
0.0
 40
0.0
 40
0.1249999999999861
 40
0.1249999999999861
 40
0.2499999999999721
 40
0.2499999999999721
 40
0.3749999999999582
 40
0.3749999999999582
 40
0.4374999999999513
 40
0.4374999999999513
 40
0.4999999999999443
 40
0.5624999999999373
 40
0.5624999999999373
 40
0.6249999999999303
 40
0.6249999999999303
 40
0.7499999999999482
 40
0.7499999999999482
 40
0.812499999999957
 40
0.812499999999957
 40
0.8749999999999659
 40
0.8749999999999659
 40
1.0
 40
1.0
 40
1.0
 40
1.0
 10
994.7395265629264
 20
1737.69974106315
 30
0.0
 10
994.7063735084827
 20
1738.126121714881
 30
0.0
 10
994.71885918416
 20
1738.548748550978
 30
0.0
 10
994.8320251964617
 20
1739.386748154177
 30
0.0
 10
994.93488140939
 20
1739.806299815352
 30
0.0
 10
995.222709496669
 20
1740.602560965481
 30
0.0
 10
995.4071924018639
 20
1740.982602394523
 30
0.0
 10
995.7460695780024
 20
1741.524951376718
 30
0.0
 10
995.8693642132611
 20
1741.700589646893
 30
0.0
 10
996.1310202940922
 20
1742.034238366311
 30
0.0
 10
996.4090373591334
 20
1742.352437034533
 30
0.0
 10
996.7193719875492
 20
1742.640117489287
 30
0.0
 10
997.046212341873
 20
1742.912211209952
 30
0.0
 10
997.2186210759138
 20
1743.04081255691
 30
0.0
 10
997.7489878057249
 20
1743.394098030665
 30
0.0
 10
998.1231617971799
 20
1743.589738036976
 30
0.0
 10
998.7152141124543
 20
1743.823571900486
 30
0.0
 10
998.919066093001
 20
1743.891806528715
 30
0.0
 10
999.3292486354262
 20
1744.005136229548
 30
0.0
 10
999.5357334576323
 20
1744.050480322373
 30
0.0
 10
1000.159245009201
 20
1744.153554154788
 30
0.0
 10
1000.580283069305
 20
1744.178697140708
 30
0.0
 10
1001.006909203951
 20
1744.158444416254
 30
0.0
  0
SPLINE
  5
B5
330
1F
100
AcDbEntity
  8
0
  6
Continuous
 62
     7
370
    15
100
AcDbSpline
210
0.0
220
0.0
230
1.0
 70
     8
 71
     3
 72
     8
 73
     4
 74
     0
 42
0.000000001
 43
0.00000001
 40
0.0
 40
0.0
 40
0.0
 40
0.0
 40
1.0
 40
1.0
 40
1.0
 40
1.0
 10
998.4341629381454
 20
1673.591420213865
 30
0.0
 10
997.6149795000728
 20
1694.982586454069
 30
0.0
 10
996.3990061747307
 20
1716.358432865226
 30
0.0
 10
994.7395210120884
 20
1737.699740508673
 30
0.0
  0
SPLINE
  5
B6
330
1F
100
AcDbEntity
  8
0
  6
Continuous
 62
     7
370
    15
100
AcDbSpline
210
0.0
220
0.0
230
1.0
 70
     8
 71
     3
 72
    10
 73
     6
 74
     0
 42
0.000000001
 43
0.00000001
 40
0.0
 40
0.0
 40
0.0
 40
0.0
 40
0.5
 40
0.5
 40
1.0
 40
1.0
 40
1.0
 40
1.0
 10
717.5831997190799
 20
2371.846171071844
 30
0.0
 10
728.3301475813047
 20
2360.158496173392
 30
0.0
 10
738.8012181126386
 20
2348.219751753909
 30
0.0
 10
759.1621917668336
 20
2323.85184344545
 30
0.0
 10
769.0457656290025
 20
2311.429575329241
 30
0.0
 10
778.6247471059282
 20
2298.767016605149
 30
0.0
  0
SPLINE
  5
B7
330
1F
100
AcDbEntity
  8
0
  6
Continuous
 62
     7
370
    15
100
AcDbSpline
210
0.0
220
0.0
230
1.0
 70
     8
 71
     3
 72
    22
 73
    18
 74
     0
 42
0.000000001
 43
0.00000001
 40
0.0
 40
0.0
 40
0.0
 40
0.0
 40
0.125
 40
0.125
 40
0.25
 40
0.25
 40
0.375
 40
0.375
 40
0.5
 40
0.5
 40
0.625
 40
0.625
 40
0.75
 40
0.75
 40
0.875
 40
0.875
 40
1.0
 40
1.0
 40
1.0
 40
1.0
 10
721.4991786942037
 20
2386.768661023148
 30
0.0
 10
721.4014773395904
 20
2386.876364524384
 30
0.0
 10
721.2932768006203
 20
2386.970558781353
 30
0.0
 10
721.0592571491098
 20
2387.136277571061
 30
0.0
 10
720.9318708399603
 20
2387.208369275977
 30
0.0
 10
720.6684993925162
 20
2387.322938631476
 30
0.0
 10
720.5319105020059
 20
2387.365620517055
 30
0.0
 10
720.2480465664597
 20
2387.41915838865
 30
0.0
 10
720.1028772588365
 20
2387.429264189923
 30
0.0
 10
719.8159996535342
 20
2387.420851800473
 30
0.0
 10
719.670993331874
 20
2387.402314101791
 30
0.0
 10
719.3916330975661
 20
2387.332982078701
 30
0.0
 10
719.2577660468112
 20
2387.282788887273
 30
0.0
 10
719.001007978647
 20
2387.153084613918
 30
0.0
 10
718.8782741699289
 20
2387.073810660631
 30
0.0
 10
718.6541020134325
 20
2386.894695371288
 30
0.0
 10
718.5506060287255
 20
2386.793455247171
 30
0.0
 10
718.4592819303574
 20
2386.68045238995
 30
0.0
  0
SPLINE
  5
B8
330
1F
100
AcDbEntity
  8
0
  6
Continuous
 62
     7
370
    15
100
AcDbSpline
210
0.0
220
0.0
230
1.0
 70
     8
 71
     3
 72
    36
 73
    32
 74
     0
 42
0.000000001
 43
0.00000001
 40
0.0
 40
0.0
 40
0.0
 40
0.0
 40
0.1249999999999998
 40
0.1249999999999998
 40
0.1875000000000018
 40
0.1875000000000018
 40
0.2187500000000014
 40
0.2187500000000014
 40
0.250000000000001
 40
0.250000000000001
 40
0.3750000000000043
 40
0.3750000000000043
 40
0.4375000000000077
 40
0.4375000000000077
 40
0.500000000000011
 40
0.500000000000011
 40
0.6250000000000194
 40
0.6250000000000194
 40
0.687500000000026
 40
0.687500000000026
 40
0.7187500000000269
 40
0.7187500000000269
 40
0.7500000000000276
 40
0.7500000000000276
 40
0.8750000000000138
 40
0.8750000000000138
 40
0.9375000000000072
 40
0.9375000000000072
 40
0.9687500000000036
 40
0.9687500000000036
 40
1.0
 40
1.0
 40
1.0
 40
1.0
 10
1027.280271226686
 20
1757.956083898446
 30
0.0
 10
1024.914803316218
 20
1758.064019011402
 30
0.0
 10
1022.592584993722
 20
1758.378750450066
 30
0.0
 10
1019.171686455242
 20
1759.149349330372
 30
0.0
 10
1018.041854334859
 20
1759.456265078574
 30
0.0
 10
1016.363055525123
 20
1759.992900035185
 30
0.0
 10
1015.806117970806
 20
1760.184506843811
 30
0.0
 10
1014.697656689445
 20
1760.593606478478
 30
0.0
 10
1014.145206132062
 20
1760.811546999063
 30
0.0
 10
1011.422870764306
 20
1761.955912383771
 30
0.0
 10
1009.353536619112
 20
1763.051018427198
 30
0.0
 10
1006.407448048497
 20
1764.955007965051
 30
0.0
 10
1005.45189252568
 20
1765.633483107765
 30
0.0
 10
1003.594779680725
 20
1767.07979530031
 30
0.0
 10
1002.689381733246
 20
1767.8515977563
 30
0.0
 10
1000.102567718824
 20
1770.262844862195
 30
0.0
 10
998.5389227462929
 20
1772.003095467107
 30
0.0
 10
996.4294083390288
 20
1774.808150135205
 30
0.0
 10
995.7657904277675
 20
1775.775802975554
 30
0.0
 10
994.8311116408881
 20
1777.277403905862
 30
0.0
 10
994.5290882210853
 20
1777.787391630142
 30
0.0
 10
993.9486705663546
 20
1778.819191914483
 30
0.0
 10
993.670946970061
 20
1779.33968421237
 30
0.0
 10
992.3436160831361
 20
1781.964687525817
 30
0.0
 10
991.4764606761006
 20
1784.136305626182
 30
0.0
 10
990.4635207388712
 20
1787.499585128085
 30
0.0
 10
990.1741137612269
 20
1788.638421184273
 30
0.0
 10
989.8143896719533
 20
1790.374035100771
 30
0.0
 10
989.7068285818195
 20
1790.957830768224
 30
0.0
 10
989.518287725023
 20
1792.126449362945
 30
0.0
 10
989.4370918659258
 20
1792.712162139945
 30
0.0
 10
989.3689169543561
 20
1793.299272640594
 30
0.0
  0
SPLINE
  5
B9
330
1F
100
AcDbEntity
  8
0
  6
Continuous
 62
     7
370
    15
100
AcDbSpline
210
0.0
220
0.0
230
1.0
 70
     8
 71
     3
 72
    12
 73
     8
 74
     0
 42
0.000000001
 43
0.00000001
 40
0.0
 40
0.0
 40
0.0
 40
0.0
 40
0.2499999999999999
 40
0.2499999999999999
 40
0.4999999999999999
 40
0.4999999999999999
 40
1.0
 40
1.0
 40
1.0
 40
1.0
 10
1436.679149594816
 20
1746.436958489241
 30
0.0
 10
1402.542405515375
 20
1746.630574882794
 30
0.0
 10
1368.411649014803
 20
1747.051847509611
 30
0.0
 10
1300.160920134631
 20
1748.30442032408
 30
0.0
 10
1266.040960978522
 20
1749.136223287644
 30
0.0
 10
1163.694675050742
 20
1752.148401809659
 30
0.0
 10
1095.48190214019
 20
1754.844114374274
 30
0.0
 10
1027.280077405209
 20
1757.956092088066
 30
0.0
  0
SPLINE
  5
BA
330
1F
100
AcDbEntity
  8
0
  6
Continuous
 62
     7
370
    15
100
AcDbSpline
210
0.0
220
0.0
230
1.0
 70
     8
 71
     3
 72
     8
 73
     4
 74
     0
 42
0.000000001
 43
0.00000001
 40
0.0
 40
0.0
 40
0.0
 40
0.0
 40
1.0
 40
1.0
 40
1.0
 40
1.0
 10
1440.323108191377
 20
1745.806656359651
 30
0.0
 10
1439.154391058634
 20
1746.184667435007
 30
0.0
 10
1437.912391391009
 20
1746.383439315757
 30
0.0
 10
1436.683432525805
 20
1746.388866420768
 30
0.0
  0
LINE
  5
BB
330
1F
100
AcDbEntity
  8
0
  6
Continuous
 62
     7
370
    15
100
AcDbLine
 10
1440.3231081914
 20
1745.8066563597
 30
0.0
 11
1449.1109642206
 21
1742.9631585512
 31
0.0
  0
SPLINE
  5
BC
330
1F
100
AcDbEntity
  8
0
  6
Continuous
 62
     7
370
    15
100
AcDbSpline
210
0.0
220
0.0
230
1.0
 70
     8
 71
     3
 72
    14
 73
    10
 74
     0
 42
0.000000001
 43
0.00000001
 40
0.0
 40
0.0
 40
0.0
 40
0.0
 40
0.25
 40
0.25
 40
0.5
 40
0.5
 40
0.75
 40
0.75
 40
1.0
 40
1.0
 40
1.0
 40
1.0
 10
1450.547126805163
 20
1740.993322555581
 30
0.0
 10
1450.551876622168
 20
1741.191986031419
 30
0.0
 10
1450.527333534608
 20
1741.401457674702
 30
0.0
 10
1450.405926703225
 20
1741.814100059612
 30
0.0
 10
1450.309353647575
 20
1742.016296344844
 30
0.0
 10
1450.053819483768
 20
1742.378219090497
 30
0.0
 10
1449.895210275884
 20
1742.537411538685
 30
0.0
 10
1449.544912396408
 20
1742.790959549451
 30
0.0
 10
1449.35403084712
 20
1742.884656027566
 30
0.0
 10
1449.163169797322
 20
1742.946663147469
 30
0.0
  0
LINE
  5
BD
330
1F
100
AcDbEntity
  8
0
  6
Continuous
 62
     7
370
    15
100
AcDbLine
 10
1450.5471268052
 20
1740.9933225556
 30
0.0
 11
1450.5475429574
 21
1725.9380979614
 31
0.0
  0
SPLINE
  5
BE
330
1F
100
AcDbEntity
  8
0
  6
Continuous
 62
     7
370
    15
100
AcDbSpline
210
0.0
220
0.0
230
1.0
 70
     8
 71
     3
 72
    14
 73
    10
 74
     0
 42
0.000000001
 43
0.00000001
 40
0.0
 40
0.0
 40
0.0
 40
0.0
 40
0.25
 40
0.25
 40
0.5
 40
0.5
 40
0.75
 40
0.75
 40
1.0
 40
1.0
 40
1.0
 40
1.0
 10
1450.547544884882
 20
1725.938097961221
 30
0.0
 10
1450.547544884826
 20
1725.702395700882
 30
0.0
 10
1450.504587407172
 20
1725.448102443021
 30
0.0
 10
1450.30965556673
 20
1724.955714641708
 30
0.0
 10
1450.157020593184
 20
1724.719146545221
 30
0.0
 10
1449.766496301662
 20
1724.328622253628
 30
0.0
 10
1449.529928205199
 20
1724.175987280034
 30
0.0
 10
1449.037540403903
 20
1723.981055439497
 30
0.0
 10
1448.783247146034
 20
1723.938097961798
 30
0.0
 10
1448.54754488568
 20
1723.938097961705
 30
0.0
  0
LINE
  5
BF
330
1F
100
AcDbEntity
  8
0
  6
Continuous
 62
     7
370
    15
100
AcDbLine
 10
1420.4284992137
 20
1723.9380979622
 30
0.0
 11
1448.5475448857
 21
1723.9380979622
 31
0.0
  0
LINE
  5
C0
330
1F
100
AcDbEntity
  8
0
  6
Continuous
 62
     7
370
    15
100
AcDbLine
 10
983.4324717447
 20
1673.5914202142
 30
0.0
 11
998.4341629381
 21
1673.5914202142
 31
0.0
  0
SPLINE
  5
C1
330
1F
100
AcDbEntity
  8
0
  6
Continuous
 62
     7
370
    15
100
AcDbSpline
210
0.0
220
0.0
230
1.0
 70
    24
 71
     3
 72
    11
 73
     7
 74
     0
 42
0.000000001
 43
0.00000001
 40
0.0
 40
0.0
 40
0.0
 40
0.0
 40
0.2771551302267248
 40
0.5543102604534496
 40
0.8314653906801742
 40
1.0
 40
1.0
 40
1.0
 40
1.0
 10
1514.411655316579
 20
1746.388866420768
 30
0.0
 10
1514.348831905807
 20
1746.388866420768
 30
0.0
 10
1514.223185084263
 20
1746.388866420768
 30
0.0
 10
1513.170829282769
 20
1746.388866420768
 30
0.0
 10
1511.821490605117
 20
1746.388866420768
 30
0.0
 10
1510.562568307113
 20
1746.388866420768
 30
0.0
 10
1510.08651521719
 20
1746.388866420768
 30
0.0
  0
SPLINE
  5
C2
330
1F
100
AcDbEntity
  8
0
  6
Continuous
 62
     7
370
    15
100
AcDbSpline
210
0.0
220
0.0
230
1.0
 70
     8
 71
     3
 72
    12
 73
     8
 74
     0
 42
0.000000001
 43
0.00000001
 40
0.0
 40
0.0
 40
0.0
 40
0.0
 40
0.5
 40
0.5
 40
0.75
 40
0.75
 40
1.0
 40
1.0
 40
1.0
 40
1.0
 10
1919.384734688334
 20
1757.879975724612
 30
0.0
 10
1851.923632670336
 20
1754.6525370422
 30
0.0
 10
1784.44995500375
 20
1751.90466738341
 30
0.0
 10
1683.209799105363
 20
1748.913153496482
 30
0.0
 10
1649.458131942417
 20
1748.104693085678
 30
0.0
 10
1581.943487877434
 20
1746.919066164752
 30
0.0
 10
1548.180559401409
 20
1746.540052941516
 30
0.0
 10
1514.41165504234
 20
1746.388928433261
 30
0.0
  0
SPLINE
  5
C3
330
1F
100
AcDbEntity
  8
0
  6
Continuous
 62
     7
370
    15
100
AcDbSpline
210
0.0
220
0.0
230
1.0
 70
     8
 71
     3
 72
    14
 73
    10
 74
     0
 42
0.000000001
 43
0.00000001
 40
0.0
 40
0.0
 40
0.0
 40
0.0
 40
0.25
 40
0.25
 40
0.5
 40
0.5
 40
0.75
 40
0.75
 40
1.0
 40
1.0
 40
1.0
 40
1.0
 10
1500.547544884964
 20
1725.938097961378
 30
0.0
 10
1500.547544885001
 20
1725.702395701034
 30
0.0
 10
1500.590502362637
 20
1725.448102443161
 30
0.0
 10
1500.785434203055
 20
1724.955714641814
 30
0.0
 10
1500.938069176595
 20
1724.719146545307
 30
0.0
 10
1501.328593468121
 20
1724.328622253673
 30
0.0
 10
1501.565161564592
 20
1724.175987280061
 30
0.0
 10
1502.057549365915
 20
1723.981055439502
 30
0.0
 10
1502.311842623798
 20
1723.938097961798
 30
0.0
 10
1502.547544884166
 20
1723.938097961705
 30
0.0
  0
LINE
  5
C4
330
1F
100
AcDbEntity
  8
0
  6
Continuous
 62
     7
370
    15
100
AcDbLine
 10
1500.547544885
 20
1725.9380979614
 30
0.0
 11
1500.5479610372
 21
1740.9933225556
 31
0.0
  0
SPLINE
  5
C5
330
1F
100
AcDbEntity
  8
0
  6
Continuous
 62
     7
370
    15
100
AcDbSpline
210
0.0
220
0.0
230
1.0
 70
     8
 71
     3
 72
    14
 73
    10
 74
     0
 42
0.000000001
 43
0.00000001
 40
0.0
 40
0.0
 40
0.0
 40
0.0
 40
0.25
 40
0.25
 40
0.5
 40
0.5
 40
0.75
 40
0.75
 40
1.0
 40
1.0
 40
1.0
 40
1.0
 10
1500.547961037222
 20
1740.993322555581
 30
0.0
 10
1500.543211220216
 20
1741.191986031419
 30
0.0
 10
1500.567754307777
 20
1741.401457674702
 30
0.0
 10
1500.68916113916
 20
1741.814100059612
 30
0.0
 10
1500.785734194809
 20
1742.016296344844
 30
0.0
 10
1501.041268358616
 20
1742.378219090497
 30
0.0
 10
1501.199877566501
 20
1742.537411538685
 30
0.0
 10
1501.550175445976
 20
1742.790959549451
 30
0.0
 10
1501.741056995265
 20
1742.884656027566
 30
0.0
 10
1501.931918045062
 20
1742.946663147469
 30
0.0
  0
LINE
  5
C6
330
1F
100
AcDbEntity
  8
0
  6
Continuous
 62
     7
370
    15
100
AcDbLine
 10
1501.9841236218
 20
1742.9631585512
 30
0.0
 11
1510.771979651
 21
1745.8066563597
 31
0.0
  0
SPLINE
  5
C7
330
1F
100
AcDbEntity
  8
0
  6
Continuous
 62
     7
370
    15
100
AcDbSpline
210
0.0
220
0.0
230
1.0
 70
     8
 71
     3
 72
     8
 73
     4
 74
     0
 42
0.000000001
 43
0.00000001
 40
0.0
 40
0.0
 40
0.0
 40
0.0
 40
1.0
 40
1.0
 40
1.0
 40
1.0
 10
1510.771979651008
 20
1745.806656359651
 30
0.0
 10
1511.940696783751
 20
1746.184667435007
 30
0.0
 10
1513.182696451375
 20
1746.383439315757
 30
0.0
 10
1514.411655316579
 20
1746.388866420768
 30
0.0
  0
SPLINE
  5
C8
330
1F
100
AcDbEntity
  8
0
  6
Continuous
 62
     7
370
    15
100
AcDbSpline
210
0.0
220
0.0
230
1.0
 70
     8
 71
     3
 72
    10
 73
     6
 74
     0
 42
0.000000001
 43
0.00000001
 40
0.0
 40
0.0
 40
0.0
 40
0.0
 40
0.5
 40
0.5
 40
1.0
 40
1.0
 40
1.0
 40
1.0
 10
2167.981660546665
 20
2298.809147221039
 30
0.0
 10
2177.570909446454
 20
2311.465096312211
 30
0.0
 10
2187.468149498407
 20
2323.884946277955
 30
0.0
 10
2207.848811323639
 20
2348.238560279374
 30
0.0
 10
2218.326219296398
 20
2360.165698404558
 30
0.0
 10
2229.081813895019
 20
2371.846412678038
 30
0.0
  0
SPLINE
  5
C9
330
1F
100
AcDbEntity
  8
0
  6
Continuous
 62
     7
370
    15
100
AcDbSpline
210
0.0
220
0.0
230
1.0
 70
     8
 71
     3
 72
    32
 73
    28
 74
     0
 42
0.000000001
 43
0.00000001
 40
0.0
 40
0.0
 40
0.0
 40
0.0
 40
0.0625000000000001
 40
0.0625000000000001
 40
0.1250000000000001
 40
0.1250000000000001
 40
0.2500000000000007
 40
0.2500000000000007
 40
0.312500000000001
 40
0.312500000000001
 40
0.3281250000000011
 40
0.3281250000000011
 40
0.3437500000000011
 40
0.3437500000000011
 40
0.375000000000001
 40
0.375000000000001
 40
0.5000000000000009
 40
0.5000000000000009
 40
0.5625000000000008
 40
0.5625000000000008
 40
0.5937500000000006
 40
0.5937500000000006
 40
0.6250000000000003
 40
0.6250000000000003
 40
0.7500000000000001
 40
0.7500000000000001
 40
1.0
 40
1.0
 40
1.0
 40
1.0
 10
1962.597551330246
 20
1673.591420214164
 30
0.0
 10
1963.165470052175
 20
1687.558400183363
 30
0.0
 10
1963.861443359647
 20
1701.510665683133
 30
0.0
 10
1965.605789788899
 20
1729.3747031988
 30
0.0
 10
1966.65462387404
 20
1743.286422246416
 30
0.0
 10
1970.410246203444
 20
1784.951586747693
 30
0.0
 10
1973.733728462197
 20
1812.634169255018
 30
0.0
 10
1980.158183318366
 20
1853.992664108655
 30
0.0
 10
1982.539114750057
 20
1867.751314794059
 30
0.0
 10
1985.832900869942
 20
1884.91313092823
 30
0.0
 10
1986.507523099191
 20
1888.343671142369
 30
0.0
 10
1987.888925086322
 20
1895.201056420099
 30
0.0
 10
1988.5958610665
 20
1898.628612012165
 30
0.0
 10
1990.763403031243
 20
1908.895652068971
 30
0.0
 10
1992.271227161573
 20
1915.722046053412
 30
0.0
 10
2000.129698562534
 20
1949.760954179343
 30
0.0
 10
2007.438548457103
 20
1976.694239111044
 30
0.0
 10
2020.036266352319
 20
2016.617874510602
 30
0.0
 10
2024.507882836246
 20
2029.846379716834
 30
0.0
 10
2031.636259059439
 20
2049.566468321344
 30
0.0
 10
2034.082959390651
 20
2056.120486473214
 30
0.0
 10
2039.117180272569
 20
2069.182456442616
 30
0.0
 10
2041.699498424372
 20
2075.677021828615
 30
0.0
 10
2054.93740111178
 20
2107.967598081042
 30
0.0
 10
2066.571812885098
 20
2133.21691754035
 30
0.0
 10
2104.620407129785
 20
2207.208140275656
 30
0.0
 10
2134.177773302426
 20
2254.194522807769
 30
0.0
 10
2167.981664715742
 20
2298.809149865834
 30
0.0
  0
SPLINE
  5
CA
330
1F
100
AcDbEntity
  8
0
  6
Continuous
 62
     7
370
    15
100
AcDbSpline
210
0.0
220
0.0
230
1.0
 70
     8
 71
     3
 72
    11
 73
     7
 74
     0
 42
0.000000001
 43
0.00000001
 40
542.017011993659
 40
542.017011993659
 40
542.017011993659
 40
542.017011993659
 40
648.1366404501999
 40
756.1594138586
 40
864.1821872670001
 40
958.3860799638641
 40
958.3860799638641
 40
958.3860799638641
 40
958.3860799638641
 10
1529.014976332631
 20
1731.467919759498
 30
0.0
 10
1564.417960341697
 20
1731.694339632861
 30
0.0
 10
1635.874957360242
 20
1732.652788960011
 30
0.0
 10
1743.054684627423
 20
1735.505647693329
 30
0.0
 10
1846.549503089867
 20
1739.438597823941
 30
0.0
 10
1913.863895654019
 20
1742.566731982344
 30
0.0
 10
1945.224381824266
 20
1744.120554785404
 30
0.0
  0
SPLINE
  5
CB
330
1F
100
AcDbEntity
  8
0
  6
Continuous
 62
     7
370
    15
100
AcDbSpline
210
0.0
220
0.0
230
1.0
 70
     8
 71
     3
 72
    22
 73
    18
 74
     0
 42
0.000000001
 43
0.00000001
 40
0.0
 40
0.0
 40
0.0
 40
0.0
 40
0.125
 40
0.125
 40
0.25
 40
0.25
 40
0.375
 40
0.375
 40
0.5
 40
0.5
 40
0.625
 40
0.625
 40
0.75
 40
0.75
 40
0.875
 40
0.875
 40
1.0
 40
1.0
 40
1.0
 40
1.0
 10
1526.034161313102
 20
1728.467945839335
 30
0.0
 10
1526.03416198641
 20
1728.664967392059
 30
0.0
 10
1526.053383120406
 20
1728.858882685878
 30
0.0
 10
1526.128875850604
 20
1729.240725470728
 30
0.0
 10
1526.186102112559
 20
1729.430660896771
 30
0.0
 10
1526.335225026792
 20
1729.792338073223
 30
0.0
 10
1526.426533096702
 20
1729.964080146277
 30
0.0
 10
1526.642464061616
 20
1730.289468166581
 30
0.0
 10
1526.768080202992
 20
1730.443510540532
 30
0.0
 10
1527.042548282556
 20
1730.719939734016
 30
0.0
 10
1527.192409733603
 20
1730.844208618439
 30
0.0
 10
1527.518054330742
 20
1731.064118468677
 30
0.0
 10
1527.691237872178
 20
1731.157645914121
 30
0.0
 10
1528.049778061804
 20
1731.308532811854
 30
0.0
 10
1528.237514920506
 20
1731.366943355941
 30
0.0
 10
1528.622959758948
 20
1731.446159022806
 30
0.0
 10
1528.817868621694
 20
1731.466645958359
 30
0.0
 10
1529.014975988761
 20
1731.467906521889
 30
0.0
  0
LINE
  5
CC
330
1F
100
AcDbEntity
  8
0
  6
Continuous
 62
     7
370
    15
100
AcDbLine
 10
1526.0341613324
 20
1724.938097962
 30
0.0
 11
1526.0341613324
 21
1728.4679470965
 31
0.0
  0
ARC
  5
CD
330
1F
100
AcDbEntity
  8
0
  6
Continuous
 62
     7
370
    15
100
AcDbCircle
 10
1525.0341613324
 20
1724.9380979622
 30
0.0
 40
1.0
100
AcDbArc
 50
269.9999974857
 51
359.9999999882
  0
LINE
  5
CE
330
1F
100
AcDbEntity
  8
0
  6
Continuous
 62
     7
370
    15
100
AcDbLine
 10
1502.5475448633
 20
1723.9380979622
 30
0.0
 11
1525.0341612885
 21
1723.9380979622
 31
0.0
  0
LINE
  5
CF
330
1F
100
AcDbEntity
  8
0
  6
Continuous
 62
     7
370
    15
100
AcDbLine
 10
1947.595990136
 20
1673.5914202142
 30
0.0
 11
1962.5975513302
 21
1673.5914202142
 31
0.0
  0
SPLINE
  5
D0
330
1F
100
AcDbEntity
  8
0
  6
Continuous
 62
     7
370
    15
100
AcDbSpline
210
0.0
220
0.0
230
1.0
 70
    24
 71
     3
 72
     8
 73
     4
 74
     0
 42
0.000000001
 43
0.00000001
 40
1595.037721909424
 40
1595.037721909424
 40
1595.037721909424
 40
1595.037721909424
 40
1595.41622341724
 40
1595.41622341724
 40
1595.41622341724
 40
1595.41622341724
 10
1962.597551330246
 20
1673.591420214164
 30
0.0
 10
1962.598772153938
 20
1673.591420214164
 30
0.0
 10
1962.59993274342
 20
1673.591420214164
 30
0.0
 10
1962.601033061814
 20
1673.591420214164
 30
0.0
  0
SPLINE
  5
D1
330
1F
100
AcDbEntity
  8
0
  6
Continuous
 62
     7
370
    15
100
AcDbSpline
210
0.0
220
0.0
230
1.0
 70
     8
 71
     3
 72
     9
 73
     5
 74
     0
 42
0.000000001
 43
0.00000001
 40
0.0
 40
0.0
 40
0.0
 40
0.0
 40
0.3467126031891311
 40
1.0
 40
1.0
 40
1.0
 40
1.0
 10
771.4632463417288
 20
2307.981517185737
 30
0.0
 10
769.0283261004454
 20
2311.147875700151
 30
0.0
 10
762.0054483080417
 20
2320.28039204161
 30
0.0
 10
754.6574321796954
 20
2329.154307370759
 30
0.0
 10
749.8570658514838
 20
2334.95152441566
 30
0.0
  0
LINE
  5
D2
330
1F
100
AcDbEntity
  8
0
  6
Continuous
 62
     7
370
    15
100
AcDbLine
 10
1500.5479610372
 20
1740.9933225556
 30
0.0
 11
1450.5471268052
 21
1740.9933225556
 31
0.0
  0
SPLINE
  5
D3
330
1F
100
AcDbEntity
  8
0
  6
Continuous
 62
     7
370
    15
100
AcDbSpline
210
0.0
220
0.0
230
1.0
 70
    24
 71
     3
 72
    38
 73
    34
 74
     0
 42
0.000000001
 43
0.00000001
 40
0.0
 40
0.0
 40
0.0
 40
0.0
 40
0.0624999999999999
 40
0.0624999999999999
 40
0.1249999999999998
 40
0.1249999999999998
 40
0.1874999999999997
 40
0.1874999999999997
 40
0.2499999999999997
 40
0.2499999999999997
 40
0.3124999999999996
 40
0.3124999999999996
 40
0.3749999999999994
 40
0.3749999999999994
 40
0.4374999999999993
 40
0.4374999999999993
 40
0.4999999999999993
 40
0.4999999999999993
 40
0.5624999999999993
 40
0.5624999999999993
 40
0.6249999999999993
 40
0.6249999999999993
 40
0.6874999999999994
 40
0.6874999999999994
 40
0.7499999999999996
 40
0.7499999999999996
 40
0.8124999999999996
 40
0.8124999999999996
 40
0.8749999999999998
 40
0.8749999999999998
 40
0.9374999999999999
 40
0.9374999999999999
 40
1.0
 40
1.0
 40
1.0
 40
1.0
 10
1502.547544884165
 20
1723.938097961705
 30
0.0
 10
1502.547544884165
 20
1723.938097961705
 30
0.0
 10
1502.477766514679
 20
1723.938097961705
 30
0.0
 10
1502.13944714747
 20
1723.938097961705
 30
0.0
 10
1501.870744884184
 20
1723.938097961705
 30
0.0
 10
1501.064344884207
 20
1723.938097961705
 30
0.0
 10
1500.526209194284
 20
1723.938097961705
 30
0.0
 10
1499.108206416897
 20
1723.938097961705
 30
0.0
 10
1498.227544884286
 20
1723.938097961705
 30
0.0
 10
1496.067544884347
 20
1723.938097961705
 30
0.0
 10
1494.787177085546
 20
1723.938097961705
 30
0.0
 10
1491.814761998372
 20
1723.938097961705
 30
0.0
 10
1490.121939348182
 20
1723.938097961705
 30
0.0
 10
1486.384915126833
 20
1723.938097961705
 30
0.0
 10
1484.340917665741
 20
1723.938097961705
 30
0.0
 10
1480.046479796039
 20
1723.938097961705
 30
0.0
 10
1477.79754488486
 20
1723.938097961705
 30
0.0
 10
1473.297544884986
 20
1723.938097961705
 30
0.0
 10
1471.048609973806
 20
1723.938097961705
 30
0.0
 10
1466.754172104104
 20
1723.938097961705
 30
0.0
 10
1464.710174643012
 20
1723.938097961705
 30
0.0
 10
1460.973150421664
 20
1723.938097961705
 30
0.0
 10
1459.280327771474
 20
1723.938097961705
 30
0.0
 10
1456.307912684299
 20
1723.938097961705
 30
0.0
 10
1455.027544885499
 20
1723.938097961705
 30
0.0
 10
1452.867544885559
 20
1723.938097961705
 30
0.0
 10
1451.986883352949
 20
1723.938097961705
 30
0.0
 10
1450.568880575562
 20
1723.938097961705
 30
0.0
 10
1450.030744885639
 20
1723.938097961705
 30
0.0
 10
1449.224344885661
 20
1723.938097961705
 30
0.0
 10
1448.955642622375
 20
1723.938097961705
 30
0.0
 10
1448.617323255167
 20
1723.938097961705
 30
0.0
 10
1448.54754488568
 20
1723.938097961705
 30
0.0
 10
1448.54754488568
 20
1723.938097961705
 30
0.0
  0
SPLINE
  5
D4
330
1F
100
AcDbEntity
  8
0
  6
Continuous
 62
     7
370
    15
100
AcDbSpline
210
0.0
220
0.0
230
1.0
 70
    24
 71
     3
 72
    16
 73
    12
 74
     0
 42
0.000000001
 43
0.00000001
 40
578.3126150765694
 40
578.3126150765694
 40
578.3126150765694
 40
578.3126150765694
 40
593.5311583841874
 40
623.9686574389871
 40
684.8436555483871
 40
806.5936517671872
 40
867.4686498765872
 40
928.3436479859872
 40
943.5623975133872
 40
951.1717722769873
 40
958.7810140035178
 40
958.7810140035178
 40
958.7810140035178
 40
958.7810140035178
 10
1464.684845746655
 20
1673.591420214164
 30
0.0
 10
1461.534842481179
 20
1673.591420214164
 30
0.0
 10
1452.082799668018
 20
1673.591420214164
 30
0.0
 10
1429.569172208423
 20
1673.591420214164
 30
0.0
 10
1385.108073839423
 20
1673.591420214164
 30
0.0
 10
1333.791651862423
 20
1673.591420214164
 30
0.0
 10
1282.843109441423
 20
1673.591420214164
 30
0.0
 10
1254.136490105423
 20
1673.591420214164
 30
0.0
 10
1236.540405772423
 20
1673.591420214164
 30
0.0
 10
1230.276329921055
 20
1673.591420214164
 30
0.0
 10
1226.918863356519
 20
1673.591420214164
 30
0.0
 10
1225.338104669041
 20
1673.591420214164
 30
0.0
  0
LINE
  5
D5
330
1F
100
AcDbEntity
  8
0
  6
Continuous
 62
     7
370
    15
100
AcDbLine
 10
1473.579126171
 20
1673.5914202142
 30
0.0
 11
1471.9072697169
 21
1673.5914202142
 31
0.0
  0
LINE
  5
D6
330
1F
100
AcDbEntity
  8
0
  6
Continuous
 62
     7
370
    15
100
AcDbLine
 10
1703.0706864959
 20
1673.5914202142
 30
0.0
 11
1473.5791264007
 21
1673.5914202142
 31
0.0
  0
SPLINE
  5
D7
330
1F
100
AcDbEntity
  8
0
  6
Continuous
 62
     7
370
    15
100
AcDbSpline
210
0.0
220
0.0
230
1.0
 70
     8
 71
     3
 72
   196
 73
   192
 74
     0
 42
0.000000001
 43
0.00000001
 40
0.0
 40
0.0
 40
0.0
 40
0.0
 40
0.0033845218090112
 40
0.0067776585863551
 40
0.010118413737711
 40
0.0134428946226407
 40
0.0167633766416819
 40
0.0200799347309602
 40
0.0233926108818054
 40
0.0267014468987897
 40
0.0300064844001118
 40
0.033307764817983
 40
0.0366053293990117
 40
0.0398992192045858
 40
0.0431894751112499
 40
0.0464761378110904
 40
0.0497592478121084
 40
0.0530388454385993
 40
0.0563149708315273
 40
0.0595876639488981
 40
0.0628569645661337
 40
0.0661229122764412
 40
0.0693855464911847
 40
0.0726449064402513
 40
0.0759010311724223
 40
0.079153959555733
 40
0.0824037302778438
 40
0.0856503818463976
 40
0.0888939525893884
 40
0.0921344806555145
 40
0.095372004014543
 40
0.0986065604576681
 40
0.1018381875978644
 40
0.1050669228702463
 40
0.1082928035324198
 40
0.1115158666648396
 40
0.1147361491711554
 40
0.1179536877785691
 40
0.1211685190381809
 40
0.1243806793253378
 40
0.1275902048399834
 40
0.1307971316070026
 40
0.134001495476567
 40
0.1372033321244778
 40
0.1404026770525139
 40
0.1435995655887669
 40
0.1467940328879864
 40
0.1499861139319198
 40
0.1531758435296479
 40
0.1563632563179285
 40
0.1595483867615253
 40
0.1627312691535523
 40
0.1659119376157994
 40
0.169090426099077
 40
0.1722667683835374
 40
0.1754409964450094
 40
0.1786131148436545
 40
0.1817831056139131
 40
0.1849509502077228
 40
0.1881166301728699
 40
0.1912801271527958
 40
0.1944414228863841
 40
0.1976004992077745
 40
0.2007573380461533
 40
0.2039119214255593
 40
0.207064231464682
 40
0.2102142503766632
 40
0.2133619604688965
 40
0.216507344142829
 40
0.2196503838937655
 40
0.2227910623106611
 40
0.2259293620759323
 40
0.2290652659652523
 40
0.2321987568473542
 40
0.2353298176838334
 40
0.2384584315289468
 40
0.2415845815294194
 40
0.24470825092424
 40
0.2478294230444702
 40
0.2509480813130397
 40
0.254064209244555
 40
0.2571777904450975
 40
0.2602888086120291
 40
0.2633972475337921
 40
0.2665030910897145
 40
0.2696063232498128
 40
0.2727069280745936
 40
0.2758048897148585
 40
0.2789001924115058
 40
0.2819928204953371
 40
0.2850827583868583
 40
0.2881699905960832
 40
0.2912545017223397
 40
0.2943362764540723
 40
0.2974152995686474
 40
0.3004915559321565
 40
0.3035650304992207
 40
0.3066357083127955
 40
0.3097035745039783
 40
0.3127686142918105
 40
0.3158308129830799
 40
0.3188901559721311
 40
0.3219466287406695
 40
0.3250002168575664
 40
0.3280509059786613
 40
0.3310986818465739
 40
0.3341435302905035
 40
0.3371854372268134
 40
0.3402243922933428
 40
0.3432603972090968
 40
0.3462934561732244
 40
0.3493235733727904
 40
0.3523507529827784
 40
0.355374999166091
 40
0.358396316073556
 40
0.3614147078439244
 40
0.3644301786038736
 40
0.3674427324680122
 40
0.3704523735388771
 40
0.3734591059069349
 40
0.3764629336505864
 40
0.379463860836167
 40
0.3824618915179452
 40
0.385457029738124
 40
0.3884492795268429
 40
0.3914386449021797
 40
0.3944251298701451
 40
0.3974087384246886
 40
0.400389474547697
 40
0.4033673422089918
 40
0.406342345366333
 40
0.409314487965416
 40
0.4122837739398706
 40
0.4152502072112628
 40
0.4182137916890926
 40
0.4211745312707912
 40
0.4241324298417243
 40
0.4270874912751894
 40
0.4300397194324099
 40
0.4329891181625407
 40
0.4359356913026647
 40
0.4388794426777861
 40
0.4418203761008362
 40
0.4447584953726662
 40
0.4476938042820478
 40
0.4506263066056717
 40
0.453556006108142
 40
0.4564829065419778
 40
0.4594070116476093
 40
0.4623283251533735
 40
0.4652468507755165
 40
0.468162592218185
 40
0.4710755531734288
 40
0.4739857373211949
 40
0.4768931483293251
 40
0.4797977898535539
 40
0.4826996655375045
 40
0.4855987790126842
 40
0.4884951338984873
 40
0.4913887338021849
 40
0.4942795823189225
 40
0.497167683031721
 40
0.5000530395114701
 40
0.5187295175361996
 40
0.5373422554590397
 40
0.5558921964030361
 40
0.5743802769585558
 40
0.592807427097321
 40
0.6111745700785107
 40
0.6294826223472935
 40
0.6477324934261603
 40
0.6659250857994449
 40
0.6840610833004946
 40
0.7021399276374681
 40
0.7201606451783295
 40
0.7381223118587769
 40
0.7560240552565768
 40
0.7738650558678318
 40
0.7916445482812954
 40
0.8093618222538533
 40
0.8270162236900213
 40
0.84460715552802
 40
0.8621340785347652
 40
0.8795965120118555
 40
0.8969940344144274
 40
0.9143262838845148
 40
0.9315929587003708
 40
0.9487938176430021
 40
0.9659286802810139
 40
0.9829974271746792
 40
1.0
 40
1.0
 40
1.0
 40
1.0
 10
1472.378198488451
 20
2285.104187459732
 30
0.0
 10
1472.784298130217
 20
2285.100959399632
 30
0.0
 10
1473.59753110056
 20
2285.094495062722
 30
0.0
 10
1474.81161577181
 20
2285.084829490422
 30
0.0
 10
1476.018531448527
 20
2285.081862971395
 30
0.0
 10
1477.216725703686
 20
2285.079237156835
 30
0.0
 10
1478.412018191555
 20
2285.07693162434
 30
0.0
 10
1479.605894355007
 20
2285.074941240118
 30
0.0
 10
1480.798373508961
 20
2285.073267816409
 30
0.0
 10
1481.989470488985
 20
2285.071912166482
 30
0.0
 10
1483.179200189883
 20
2285.07087536254
 30
0.0
 10
1484.367577403252
 20
2285.070158397253
 30
0.0
 10
1485.554616861124
 20
2285.069762274313
 30
0.0
 10
1486.740333224466
 20
2285.069687984238
 30
0.0
 10
1487.924741086445
 20
2285.069936510867
 30
0.0
 10
1489.107854971735
 20
2285.070508829643
 30
0.0
 10
1490.28968933688
 20
2285.071405908096
 30
0.0
 10
1491.470258570384
 20
2285.07262870574
 30
0.0
 10
1492.649576992865
 20
2285.074178174119
 30
0.0
 10
1493.827658857195
 20
2285.076055256822
 30
0.0
 10
1495.004518348644
 20
2285.078260889498
 30
0.0
 10
1496.180169585022
 20
2285.080795999877
 30
0.0
 10
1497.354626616823
 20
2285.083661507786
 30
0.0
 10
1498.527903427366
 20
2285.086858325171
 30
0.0
 10
1499.700013932935
 20
2285.090387356107
 30
0.0
 10
1500.870971982925
 20
2285.094249496827
 30
0.0
 10
1502.040791359982
 20
2285.098445635729
 30
0.0
 10
1503.209485780144
 20
2285.102976653402
 30
0.0
 10
1504.377068892984
 20
2285.10784342264
 30
0.0
 10
1505.543554281749
 20
2285.113046808461
 30
0.0
 10
1506.708955463504
 20
2285.118587668125
 30
0.0
 10
1507.873285889273
 20
2285.12446685115
 30
0.0
 10
1509.036558944176
 20
2285.130685199334
 30
0.0
 10
1510.198787947577
 20
2285.137243546769
 30
0.0
 10
1511.359986153216
 20
2285.14414271986
 30
0.0
 10
1512.520166749357
 20
2285.151383537344
 30
0.0
 10
1513.679342858924
 20
2285.158966810306
 30
0.0
 10
1514.837527539643
 20
2285.166893342198
 30
0.0
 10
1515.994733784182
 20
2285.175163928855
 30
0.0
 10
1517.150974520288
 20
2285.183779358518
 30
0.0
 10
1518.306262610935
 20
2285.192740411843
 30
0.0
 10
1519.460610854453
 20
2285.202047861927
 30
0.0
 10
1520.614031984673
 20
2285.21170247432
 30
0.0
 10
1521.76653867107
 20
2285.221705007047
 30
0.0
 10
1522.918143518894
 20
2285.232056210622
 30
0.0
 10
1524.068859069316
 20
2285.242756828069
 30
0.0
 10
1525.21869779956
 20
2285.253807594936
 30
0.0
 10
1526.367672123053
 20
2285.265209239315
 30
0.0
 10
1527.51579438955
 20
2285.27696248186
 30
0.0
 10
1528.663076885283
 20
2285.289068035802
 30
0.0
 10
1529.809531833095
 20
2285.301526606978
 30
0.0
 10
1530.955171392577
 20
2285.314338893797
 30
0.0
 10
1532.100007660207
 20
2285.327505587458
 30
0.0
 10
1533.244052669504
 20
2285.341027371212
 30
0.0
 10
1534.387318195048
 20
2285.354904920827
 30
0.0
 10
1535.52981248407
 20
2285.369138852996
 30
0.0
 10
1536.671537573244
 20
2285.383729735574
 30
0.0
 10
1537.812489435278
 20
2285.398678088153
 30
0.0
 10
1538.952661280643
 20
2285.413984382893
 30
0.0
 10
1540.092046271393
 20
2285.429649086264
 30
0.0
 10
1541.230637602556
 20
2285.445672657947
 30
0.0
 10
1542.368428502049
 20
2285.462055551422
 30
0.0
 10
1543.505412230614
 20
2285.478798213834
 30
0.0
 10
1544.641582081745
 20
2285.495901086049
 30
0.0
 10
1545.776931381615
 20
2285.513364602657
 30
0.0
 10
1546.911453489011
 20
2285.53118919199
 30
0.0
 10
1548.045141795261
 20
2285.549375276138
 30
0.0
 10
1549.17798972416
 20
2285.567923270964
 30
0.0
 10
1550.309990731907
 20
2285.586833586121
 30
0.0
 10
1551.441138307031
 20
2285.606106625064
 30
0.0
 10
1552.57142597032
 20
2285.625742785071
 30
0.0
 10
1553.700847274755
 20
2285.64574245725
 30
0.0
 10
1554.829395805434
 20
2285.666106026563
 30
0.0
 10
1555.957065179508
 20
2285.686833871839
 30
0.0
 10
1557.08384904611
 20
2285.707926365783
 30
0.0
 10
1558.209741086282
 20
2285.729383875002
 30
0.0
 10
1559.334735012908
 20
2285.75120676001
 30
0.0
 10
1560.458824570647
 20
2285.773395375249
 30
0.0
 10
1561.582003535857
 20
2285.795950069107
 30
0.0
 10
1562.704265716532
 20
2285.818871183925
 30
0.0
 10
1563.825604952229
 20
2285.84215905602
 30
0.0
 10
1564.946015113998
 20
2285.865814015695
 30
0.0
 10
1566.065490104319
 20
2285.889836387257
 30
0.0
 10
1567.184023857022
 20
2285.914226489032
 30
0.0
 10
1568.301610337231
 20
2285.938984633379
 30
0.0
 10
1569.418243541283
 20
2285.964111126706
 30
0.0
 10
1570.533917496668
 20
2285.989606269486
 30
0.0
 10
1571.648626261954
 20
2286.015470356269
 30
0.0
 10
1572.762363926722
 20
2286.041703675703
 30
0.0
 10
1573.875124611495
 20
2286.068306510542
 30
0.0
 10
1574.986902467672
 20
2286.095279137665
 30
0.0
 10
1576.097691677455
 20
2286.122621828093
 30
0.0
 10
1577.207486453786
 20
2286.150334847
 30
0.0
 10
1578.316281040274
 20
2286.178418453728
 30
0.0
 10
1579.42406971113
 20
2286.206872901807
 30
0.0
 10
1580.530846771094
 20
2286.235698438966
 30
0.0
 10
1581.636606555373
 20
2286.264895307148
 30
0.0
 10
1582.741343429566
 20
2286.294463742525
 30
0.0
 10
1583.845051789604
 20
2286.324403975516
 30
0.0
 10
1584.947726061675
 20
2286.354716230799
 30
0.0
 10
1586.049360702156
 20
2286.385400727325
 30
0.0
 10
1587.149950197551
 20
2286.416457678337
 30
0.0
 10
1588.249489064418
 20
2286.44788729138
 30
0.0
 10
1589.347971849303
 20
2286.47968976833
 30
0.0
 10
1590.445393128675
 20
2286.511865305346
 30
0.0
 10
1591.541747508843
 20
2286.544414093131
 30
0.0
 10
1592.637029626039
 20
2286.577336316033
 30
0.0
 10
1593.731234582018
 20
2286.610632168729
 30
0.0
 10
1594.82435938299
 20
2286.644301888702
 30
0.0
 10
1595.916403238695
 20
2286.678345585888
 30
0.0
 10
1597.007367101951
 20
2286.712763425316
 30
0.0
 10
1598.097252219255
 20
2286.747555573454
 30
0.0
 10
1599.186059831797
 20
2286.782722191741
 30
0.0
 10
1600.273791175521
 20
2286.818263435873
 30
0.0
 10
1601.360447481123
 20
2286.85417945601
 30
0.0
 10
1602.446029974067
 20
2286.890470396742
 30
0.0
 10
1603.530539874597
 20
2286.927136397116
 30
0.0
 10
1604.613978397744
 20
2286.964177590648
 30
0.0
 10
1605.696346753346
 20
2287.001594105334
 30
0.0
 10
1606.777646146052
 20
2287.039386063675
 30
0.0
 10
1607.857877775339
 20
2287.077553582678
 30
0.0
 10
1608.93704283552
 20
2287.116096773882
 30
0.0
 10
1610.01514251576
 20
2287.155015743367
 30
0.0
 10
1611.092178000083
 20
2287.194310591768
 30
0.0
 10
1612.168150467386
 20
2287.233981414293
 30
0.0
 10
1613.243061091452
 20
2287.274028300736
 30
0.0
 10
1614.31691104096
 20
2287.31445133549
 30
0.0
 10
1615.389701479496
 20
2287.355250597564
 30
0.0
 10
1616.461433565567
 20
2287.396426160595
 30
0.0
 10
1617.532108452609
 20
2287.437978092866
 30
0.0
 10
1618.601727289003
 20
2287.479906457317
 30
0.0
 10
1619.670291218083
 20
2287.522211311559
 30
0.0
 10
1620.737801378151
 20
2287.564892707896
 30
0.0
 10
1621.804258902483
 20
2287.607950693326
 30
0.0
 10
1622.869664919348
 20
2287.65138530957
 30
0.0
 10
1623.934020552011
 20
2287.695196593076
 30
0.0
 10
1624.997326918755
 20
2287.739384575038
 30
0.0
 10
1626.059585132881
 20
2287.783949281408
 30
0.0
 10
1627.120796302728
 20
2287.828890732913
 30
0.0
 10
1628.180961531681
 20
2287.87420894507
 30
0.0
 10
1629.240081918183
 20
2287.919903928193
 30
0.0
 10
1630.298158555745
 20
2287.965975687418
 30
0.0
 10
1631.35519253296
 20
2288.01242422271
 30
0.0
 10
1632.411184933514
 20
2288.059249528879
 30
0.0
 10
1633.466136836195
 20
2288.106451595596
 30
0.0
 10
1634.520049314907
 20
2288.154030407405
 30
0.0
 10
1635.572923438679
 20
2288.201985943737
 30
0.0
 10
1636.624760271677
 20
2288.250318178928
 30
0.0
 10
1637.675560873219
 20
2288.299027082228
 30
0.0
 10
1638.725326297781
 20
2288.34811261782
 30
0.0
 10
1639.774057595009
 20
2288.397574744832
 30
0.0
 10
1640.821755809735
 20
2288.447413417349
 30
0.0
 10
1641.868421981982
 20
2288.497628584432
 30
0.0
 10
1642.91405714698
 20
2288.548220190128
 30
0.0
 10
1643.958662335174
 20
2288.599188173487
 30
0.0
 10
1645.002238572244
 20
2288.650532468572
 30
0.0
 10
1646.044786879072
 20
2288.702253004484
 30
0.0
 10
1647.086308271935
 20
2288.754349705343
 30
0.0
 10
1648.126803761827
 20
2288.806822490417
 30
0.0
 10
1649.166274357042
 20
2288.859671273708
 30
0.0
 10
1650.204721053603
 20
2288.912895965575
 30
0.0
 10
1651.242144870977
 20
2288.966496466731
 30
0.0
 10
1654.169564504555
 20
2289.118957655489
 30
0.0
 10
1658.979084192756
 20
2289.376884666201
 30
0.0
 10
1665.66226416626
 20
2289.753474766628
 30
0.0
 10
1672.321164944896
 20
2290.147037279875
 30
0.0
 10
1678.956025139927
 20
2290.557672822435
 30
0.0
 10
1685.567080137704
 20
2290.985476986504
 30
0.0
 10
1692.154560761259
 20
2291.430540477674
 30
0.0
 10
1698.71869359384
 20
2291.892948407104
 30
0.0
 10
1705.259701271343
 20
2292.372783266705
 30
0.0
 10
1711.777775993105
 20
2292.870112151414
 30
0.0
 10
1718.272937025066
 20
2293.38501520709
 30
0.0
 10
1724.744937060717
 20
2293.917170263594
 30
0.0
 10
1731.193324673899
 20
2294.466195561704
 30
0.0
 10
1737.617605420541
 20
2295.031722233065
 30
0.0
 10
1744.017295287815
 20
2295.613382440358
 30
0.0
 10
1750.39192118764
 20
2296.210813674254
 30
0.0
 10
1756.741020735505
 20
2296.823657567677
 30
0.0
 10
1763.064142200294
 20
2297.451560165303
 30
0.0
 10
1769.360844399014
 20
2298.094171823805
 30
0.0
 10
1775.630696641306
 20
2298.751147141854
 30
0.0
 10
1781.873278530215
 20
2299.422145137976
 30
0.0
 10
1788.088180285456
 20
2300.106828413701
 30
0.0
 10
1794.275001130269
 20
2300.804866108839
 30
0.0
 10
1800.433354864044
 20
2301.515922777016
 30
0.0
 10
1806.56284876822
 20
2302.239699514627
 30
0.0
 10
1812.663161469811
 20
2302.975781182546
 30
0.0
 10
1818.733753598414
 20
2303.72420316913
 30
0.0
 10
1824.774941002447
 20
2304.483348218822
 30
0.0
 10
1828.788717228057
 20
2305.00062071343
 30
0.0
 10
1830.791707518522
 20
2305.258754631713
 30
0.0
  0
LINE
  5
D8
330
1F
100
AcDbEntity
  8
0
  6
Continuous
 62
     7
370
    15
100
AcDbLine
 10
1420.072002155
 20
1723.9861379998
 30
0.0
 11
1420.3413554364
 21
1723.9380985436
 31
0.0
  0
LINE
  5
D9
330
1F
100
AcDbEntity
  8
0
  6
Continuous
 62
     7
370
    15
100
AcDbLine
 10
1471.9072680437
 20
1673.5914187543
 30
0.0
 11
1464.6848459898
 21
1673.5914201193
 31
0.0
  0
SPLINE
  5
DA
330
1F
100
AcDbEntity
  8
0
  6
Continuous
 62
     7
370
    15
100
AcDbSpline
210
0.0
220
0.0
230
1.0
 70
     8
 71
     3
 72
     9
 73
     5
 74
     0
 42
0.000000001
 43
0.00000001
 40
0.0
 40
0.0
 40
0.0
 40
0.0
 40
0.9960632023264578
 40
1.0
 40
1.0
 40
1.0
 40
1.0
 10
1525.120480400009
 20
1723.938102708344
 30
0.0
 10
1525.225071422547
 20
1723.939187299341
 30
0.0
 10
1525.330075826178
 20
1723.94027617703
 30
0.0
 10
1525.406800356448
 20
1723.969803967967
 30
0.0
 10
1525.4071024054
 20
1723.969920212906
 30
0.0
  0
LINE
  5
DB
330
1F
100
AcDbEntity
  8
0
  6
Continuous
 62
     7
370
    15
100
AcDbLine
 10
1420.3387910155
 20
1723.8699277415
 30
0.0
 11
1420.3413500314
 21
1723.938109859
 31
0.0
  0
SPLINE
  5
DC
330
1F
100
AcDbEntity
  8
0
  6
Continuous
 62
     7
370
    15
100
AcDbSpline
210
0.0
220
0.0
230
1.0
 70
     8
 71
     3
 72
     8
 73
     4
 74
     0
 42
0.000000001
 43
0.00000001
 40
0.0
 40
0.0
 40
0.0
 40
0.0
 40
1.0
 40
1.0
 40
1.0
 40
1.0
 10
1525.123537821184
 20
1723.889129180013
 30
0.0
 10
1525.122552342088
 20
1723.921097867354
 30
0.0
 10
1525.121521298958
 20
1723.93810128141
 30
0.0
 10
1525.120480400009
 20
1723.938102708344
 30
0.0
  0
SPLINE
  5
DD
330
1F
100
AcDbEntity
  8
0
  6
Continuous
 62
     7
370
    15
100
AcDbSpline
210
0.0
220
0.0
230
1.0
 70
     8
 71
     3
 72
    26
 73
    22
 74
     0
 42
0.000000001
 43
0.00000001
 40
0.0
 40
0.0
 40
0.0
 40
0.0
 40
0.1249917529299156
 40
0.2503267928427748
 40
0.3126069177763036
 40
0.3754898244743123
 40
0.4186786891678762
 40
0.4380683936217395
 40
0.4694518498831056
 40
0.5008366449594398
 40
0.5630503905810538
 40
0.6257201786168253
 40
0.6872735727774208
 40
0.7503862088131623
 40
0.8127850386832943
 40
0.8428859534300223
 40
0.8750943327451077
 40
0.9042586406609053
 40
0.9376078483642909
 40
0.9547605685794758
 40
1.0
 40
1.0
 40
1.0
 40
1.0
 10
1460.052340847753
 20
2232.209546600691
 30
0.0
 10
1459.308925726682
 20
2232.209557485813
 30
0.0
 10
1457.82005371196
 20
2232.209579285952
 30
0.0
 10
1455.960762319077
 20
2232.209511160163
 30
0.0
 10
1454.470891440515
 20
2232.209632058142
 30
0.0
 10
1453.469570856982
 20
2232.209248266198
 30
0.0
 10
1452.72342071371
 20
2232.210130502202
 30
0.0
 10
1452.164484118304
 20
2232.208417402799
 30
0.0
 10
1451.676614285978
 20
2232.177547660207
 30
0.0
 10
1450.940456410854
 20
2232.084767901217
 30
0.0
 10
1450.037247949262
 20
2231.878272219331
 30
0.0
 10
1449.013439254261
 20
2231.491101221692
 30
0.0
 10
1448.065075305384
 20
2230.96345069328
 30
0.0
 10
1447.228008413781
 20
2230.303141985127
 30
0.0
 10
1446.651447149697
 20
2229.650392771923
 30
0.0
 10
1446.278276906018
 20
2229.076638203217
 30
0.0
 10
1446.051362548853
 20
2228.633297022614
 30
0.0
 10
1445.868242852285
 20
2228.155656154211
 30
0.0
 10
1445.762392461299
 20
2227.74075213182
 30
0.0
 10
1445.679523927507
 20
2227.235492021619
 30
0.0
 10
1445.679643580215
 20
2226.901448036026
 30
0.0
 10
1445.679730338249
 20
2226.659238726337
 30
0.0
  0
SPLINE
  5
DE
330
1F
100
AcDbEntity
  8
0
  6
Continuous
 62
     7
370
    15
100
AcDbSpline
210
0.0
220
0.0
230
1.0
 70
     8
 71
     3
 72
    29
 73
    25
 74
     0
 42
0.000000001
 43
0.00000001
 40
0.0
 40
0.0
 40
0.0
 40
0.0
 40
0.0160239429663701
 40
0.0302687665352885
 40
0.0427384128270578
 40
0.0534317465520415
 40
0.062345687182141
 40
0.0952021247095707
 40
0.1248942377782486
 40
0.1568400458147216
 40
0.1872390641617461
 40
0.2496382583578317
 40
0.3739616933409442
 40
0.4361250130212047
 40
0.4986057819535957
 40
0.529753867235587
 40
0.5612013831704283
 40
0.5692731634968273
 40
0.5925443400503972
 40
0.6238870021569031
 40
0.6865724350420651
 40
0.749258094044666
 40
0.8580346843748096
 40
1.0
 40
1.0
 40
1.0
 40
1.0
 10
1445.679730338249
 20
2226.659238726337
 30
0.0
 10
1445.676971960272
 20
2226.574360857432
 30
0.0
 10
1445.671761463756
 20
2226.414029008817
 30
0.0
 10
1445.682272506146
 20
2226.18747950794
 30
0.0
 10
1445.701464463148
 20
2225.989843890654
 30
0.0
 10
1445.726249453692
 20
2225.821181165114
 30
0.0
 10
1445.777704527639
 20
2225.546773227428
 30
0.0
 10
1445.879778040395
 20
2225.177483373078
 30
0.0
 10
1446.074783363897
 20
2224.706334259228
 30
0.0
 10
1446.318522856011
 20
2224.267780822349
 30
0.0
 10
1446.715095794564
 20
2223.707270192883
 30
0.0
 10
1447.561742075008
 20
2222.829741415444
 30
0.0
 10
1448.814653676177
 20
2222.08160873058
 30
0.0
 10
1450.19473272035
 20
2221.615133728797
 30
0.0
 10
1451.096599392165
 20
2221.435884406447
 30
0.0
 10
1451.830486504098
 20
2221.359919029046
 30
0.0
 10
1452.24748986507
 20
2221.342766150814
 30
0.0
 10
1452.617981497013
 20
2221.341465643733
 30
0.0
 10
1452.987863790278
 20
2221.343311853995
 30
0.0
 10
1453.679998202733
 20
2221.341351749453
 30
0.0
 10
1454.604703733014
 20
2221.342347829588
 30
0.0
 10
1455.986310754268
 20
2221.341996400471
 30
0.0
 10
1457.83572569882
 20
2221.342137631253
 30
0.0
 10
1459.31526618716
 20
2221.342115431149
 30
0.0
 10
1460.152953974557
 20
2221.342102861871
 30
0.0
  0
SPLINE
  5
DF
330
1F
100
AcDbEntity
  8
0
  6
Continuous
 62
     7
370
    15
100
AcDbSpline
210
0.0
220
0.0
230
1.0
 70
     8
 71
     3
 72
    36
 73
    32
 74
     0
 42
0.000000001
 43
0.00000001
 40
0.0
 40
0.0
 40
0.0
 40
0.0
 40
0.0625336177962013
 40
0.1250671531469311
 40
0.1563339614096496
 40
0.1876007627538787
 40
0.2501342830385292
 40
0.3758256144375626
 40
0.5002688652464985
 40
0.5419575352531723
 40
0.5836462056153985
 40
0.6253348758492485
 40
0.6670235453134928
 40
0.7087122116268935
 40
0.750400882845987
 40
0.7565133150675435
 40
0.7626743538042912
 40
0.7688838390260091
 40
0.7751423448707301
 40
0.7814506229244094
 40
0.7970331827099093
 40
0.8125680294029815
 40
0.8438147111680232
 40
0.8749802341887943
 40
0.905499506712654
 40
0.9373949007117429
 40
0.9522044413015734
 40
0.9685138155723818
 40
0.9766409220967525
 40
0.9871379136938804
 40
0.9999999999999999
 40
0.9999999999999999
 40
0.9999999999999999
 40
0.9999999999999999
 10
1467.136250985353
 20
2221.342102527662
 30
0.0
 10
1467.972286365661
 20
2221.342097100465
 30
0.0
 10
1469.644356024031
 20
2221.342086246078
 30
0.0
 10
1471.734454986181
 20
2221.342122422622
 30
0.0
 10
1473.406525027303
 20
2221.342074486004
 30
0.0
 10
1475.078595681235
 20
2221.342116612906
 30
0.0
 10
1478.013080940838
 20
2221.342094171136
 30
0.0
 10
1482.193280037985
 20
2221.342109111028
 30
0.0
 10
1486.094788962203
 20
2221.342092092022
 30
0.0
 10
1488.873220694433
 20
2221.342105881901
 30
0.0
 10
1490.545271642363
 20
2221.34204182243
 30
0.0
 10
1492.217319970452
 20
2221.342245380486
 30
0.0
 10
1493.889358961001
 20
2221.341466856803
 30
0.0
 10
1495.561411139978
 20
2221.344399530919
 30
0.0
 10
1496.757779509941
 20
2221.336589278672
 30
0.0
 10
1497.479248109479
 20
2221.344782512588
 30
0.0
 10
1497.726118129847
 20
2221.356201322181
 30
0.0
 10
1497.97449571798
 20
2221.373687026917
 30
0.0
 10
1498.224118774956
 20
2221.398579858382
 30
0.0
 10
1498.596891279731
 20
2221.446350354448
 30
0.0
 10
1499.088559158328
 20
2221.534213681437
 30
0.0
 10
1499.892336924102
 20
2221.738412012855
 30
0.0
 10
1500.859408977261
 20
2222.103724167096
 30
0.0
 10
1501.911012758015
 20
2222.714841159701
 30
0.0
 10
1502.821059126795
 20
2223.500657478288
 30
0.0
 10
1503.401649134076
 20
2224.282599816367
 30
0.0
 10
1503.737447252633
 20
2224.979580993505
 30
0.0
 10
1503.885359384894
 20
2225.434436252674
 30
0.0
 10
1503.969233204391
 20
2225.847372700425
 30
0.0
 10
1504.016478266232
 20
2226.224083020274
 30
0.0
 10
1504.011191933961
 20
2226.504716640674
 30
0.0
 10
1504.008281148604
 20
2226.659240456252
 30
0.0
  0
SPLINE
  5
E0
330
1F
100
AcDbEntity
  8
0
  6
Continuous
 62
     7
370
    15
100
AcDbSpline
210
0.0
220
0.0
230
1.0
 70
     8
 71
     3
 72
    35
 73
    31
 74
     0
 42
0.000000001
 43
0.00000001
 40
0.0
 40
0.0
 40
0.0
 40
0.0
 40
0.0051941646094061
 40
0.0103878988648125
 40
0.0155829097129438
 40
0.0234295670804947
 40
0.0310604494111092
 40
0.0476214642164959
 40
0.0622149725968192
 40
0.093264287702805
 40
0.1242947712092956
 40
0.1556588596780691
 40
0.1864295423424897
 40
0.2175750599309936
 40
0.2485125034754156
 40
0.2574905243891323
 40
0.2783652373869783
 40
0.3111362025862528
 40
0.3420484655283746
 40
0.3737601701645555
 40
0.4363887252743689
 40
0.4990081608571451
 40
0.6235392716774738
 40
0.7495041508621798
 40
0.8121281462528401
 40
0.8434401234219907
 40
0.8747521038295862
 40
0.9060640747657727
 40
0.9373760433357357
 40
0.9999999999999999
 40
0.9999999999999999
 40
0.9999999999999999
 40
0.9999999999999999
 10
1504.008281148604
 20
2226.659240456252
 30
0.0
 10
1504.010601966614
 20
2226.721990559652
 30
0.0
 10
1504.015243410346
 20
2226.847485567395
 30
0.0
 10
1504.01079291699
 20
2227.03583137378
 30
0.0
 10
1503.996482187091
 20
2227.255681792114
 30
0.0
 10
1503.966273545192
 20
2227.503951365648
 30
0.0
 10
1503.894119533253
 20
2227.885327994962
 30
0.0
 10
1503.759699827669
 20
2228.33883660924
 30
0.0
 10
1503.452037526627
 20
2229.036916997554
 30
0.0
 10
1502.9166736225
 20
2229.835148110793
 30
0.0
 10
1502.054426284331
 20
2230.662267098302
 30
0.0
 10
1501.033251188975
 20
2231.32212646851
 30
0.0
 10
1499.895672466989
 20
2231.807599998334
 30
0.0
 10
1498.688147284738
 20
2232.111637916386
 30
0.0
 10
1497.732868945092
 20
2232.208737229662
 30
0.0
 10
1496.91439373755
 20
2232.209861141248
 30
0.0
 10
1496.07130878631
 20
2232.20945186157
 30
0.0
 10
1494.932881856478
 20
2232.209554034761
 30
0.0
 10
1493.648566970154
 20
2232.209577477657
 30
0.0
 10
1491.962265943036
 20
2232.20951788741
 30
0.0
 10
1489.849080475306
 20
2232.209511278217
 30
0.0
 10
1486.486234230394
 20
2232.209551133022
 30
0.0
 10
1482.270657368131
 20
2232.209551289553
 30
0.0
 10
1478.055013315881
 20
2232.209534903828
 30
0.0
 10
1475.09440734022
 20
2232.209559091678
 30
0.0
 10
1473.408158475804
 20
2232.209516387572
 30
0.0
 10
1472.14347348448
 20
2232.209555710431
 30
0.0
 10
1470.878781729545
 20
2232.209550528279
 30
0.0
 10
1469.192529153127
 20
2232.209525034862
 30
0.0
 10
1467.927843375229
 20
2232.209537777906
 30
0.0
 10
1467.084719435676
 20
2232.20954627327
 30
0.0
  0
LINE
  5
E1
330
1F
100
AcDbEntity
  8
0
  6
Continuous
 62
     7
370
    15
100
AcDbLine
 10
1460.1529539746
 20
2221.3421028619
 30
0.0
 11
1467.1362509854
 21
2221.3421025277
 31
0.0
  0
LINE
  5
E2
330
1F
100
AcDbEntity
  8
0
  6
Continuous
 62
     7
370
    15
100
AcDbLine
 10
1467.0847194357
 20
2232.2095462733
 30
0.0
 11
1460.0523576568
 21
2232.2095466007
 31
0.0
  0
LINE
  5
E3
330
1F
100
AcDbEntity
  8
SKETCH
370
    15
100
AcDbLine
 10
970.7163594374
 20
1673.5914202142
 30
0.0
 11
538.214502001
 21
1673.5914202142
 31
0.0
  0
LINE
  5
E4
330
1F
100
AcDbEntity
  8
SKETCH
370
    15
100
AcDbLine
 10
538.214502001
 20
1673.5914202142
 30
0.0
 11
538.214502001
 21
2386.7853373194
 31
0.0
  0
LINE
  5
E5
330
1F
100
AcDbEntity
  8
SKETCH
370
    15
100
AcDbLine
 10
538.214502001
 20
2386.7853373194
 30
0.0
 11
692.0659305912
 21
2386.7853373194
 31
0.0
  0
LINE
  5
E6
330
1F
100
AcDbEntity
  8
SKETCH
370
    15
100
AcDbLine
 10
983.4324717447
 20
1664.0766107543
 30
0.0
 11
983.4324717447
 21
1535.9323794977
 31
0.0
  0
LINE
  5
E7
330
1F
100
AcDbEntity
  8
SKETCH
370
    15
100
AcDbLine
 10
983.4324717447
 20
1535.9323794977
 30
0.0
 11
1962.5975513302
 21
1535.9323794977
 31
0.0
  0
LINE
  5
E8
330
1F
100
AcDbEntity
  8
SKETCH
370
    15
100
AcDbLine
 10
1962.5975513302
 20
1535.9323794977
 30
0.0
 11
1962.5975513302
 21
1664.0766107543
 31
0.0
  0
LINE
  5
E9
330
1F
100
AcDbEntity
  8
SKETCH
370
    15
100
AcDbLine
 10
1962.5975513302
 20
1664.0766107543
 30
0.0
 11
1962.5975513302
 21
1625.9421622457
 31
0.0
  0
LINE
  5
EA
330
1F
100
AcDbEntity
  8
SKETCH
370
    15
100
AcDbLine
 10
1529.0587421694
 20
1723.9380979622
 30
0.0
 11
1582.5164074492
 21
1723.9380979622
 31
0.0
  0
LINE
  5
EB
330
1F
100
AcDbEntity
  8
SKETCH
370
    15
100
AcDbLine
 10
1582.5164074492
 20
1723.9380979622
 30
0.0
 11
1582.5164074492
 21
1673.5914202142
 31
0.0
  0
LINE
  5
EC
330
1F
100
AcDbEntity
  8
SKETCH
370
    15
100
AcDbLine
 10
1978.2372265385
 20
1744.1205285072
 30
0.0
 11
2399.484024168
 21
1744.1205285072
 31
0.0
  0
LINE
  5
ED
330
1F
100
AcDbEntity
  8
SKETCH
370
    15
100
AcDbLine
 10
2399.484024168
 20
1744.1205285072
 30
0.0
 11
2399.484024168
 21
1673.5914202142
 31
0.0
  0
LINE
  5
EE
330
1F
100
AcDbEntity
  8
SKETCH
370
    15
100
AcDbLine
 10
2399.484024168
 20
1673.5914202142
 30
0.0
 11
1978.2372265385
 21
1673.5914202142
 31
0.0
  0
LINE
  5
EF
330
1F
100
AcDbEntity
  8
SKETCH
370
    15
100
AcDbLine
 10
1978.2372265385
 20
1757.8798164775
 30
0.0
 11
2400.2528286564
 21
1757.8798164775
 31
0.0
  0
LINE
  5
F0
330
1F
100
AcDbEntity
  8
SKETCH
370
    15
100
AcDbLine
 10
2400.2528286564
 20
1757.8798164775
 30
0.0
 11
2400.2528286564
 21
2383.3124166435
 31
0.0
  0
LINE
  5
F1
330
1F
100
AcDbEntity
  8
SKETCH
370
    15
100
AcDbLine
 10
2400.2528286564
 20
2383.3124166435
 30
0.0
 11
2251.998873853
 21
2383.3124166435
 31
0.0
  0
LINE
  5
F2
330
1F
100
AcDbEntity
  8
SKETCH
370
    15
100
AcDbLine
 10
2242.4072653121
 20
2380.7442258806
 30
0.0
 11
2281.7257871984
 21
2420.062747767
 31
0.0
  0
LINE
  5
F3
330
1F
100
AcDbEntity
  8
SKETCH
370
    15
100
AcDbLine
 10
2281.7257871984
 20
2420.062747767
 30
0.0
 11
2272.4221614636
 21
2429.3663735019
 31
0.0
  0
LINE
  5
F4
330
1F
100
AcDbEntity
  8
SKETCH
370
    15
100
AcDbLine
 10
2272.4221614636
 20
2429.3663735019
 30
0.0
 11
2233.1036395772
 21
2390.0478516155
 31
0.0
  0
MTEXT
  5
F5
330
1F
100
AcDbEntity
  8
SKETCH
100
AcDbMText
 10
2366.8248890842
 20
1688.6474322479
 30
0.0
 40
26.4583333333
 41
0.0
 71
     1
 72
     1
  1
65
  7
SLDTEXTSTYLE0
 11
-3.491481338843133E-15
 21
1.0
 31
0.0
 73
     1
 44
1.0
  0
MTEXT
  5
F6
330
1F
100
AcDbEntity
  8
SKETCH
100
AcDbMText
 10
2361.3634019689
 20
2022.228492074
 30
0.0
 40
26.4583333333
 41
0.0
 71
     1
 72
     1
  1
630
  7
SLDTEXTSTYLE0
 11
-3.491481338843133E-15
 21
1.0
 31
0.0
 73
     1
 44
1.0
  0
MTEXT
  5
F7
330
1F
100
AcDbEntity
  8
SKETCH
100
AcDbMText
 10
1549.6587451008
 20
1677.7056685804
 30
0.0
 40
26.4583333333
 41
0.0
 71
     1
 72
     1
  1
50
  7
SLDTEXTSTYLE0
 11
-3.491481338843133E-15
 21
1.0
 31
0.0
 73
     1
 44
1.0
  0
MTEXT
  5
F8
330
1F
100
AcDbEntity
  8
SKETCH
100
AcDbMText
 10
2289.431072397
 20
2457.8832550997
 30
0.0
 40
26.4583333333
 41
0.0
 71
     1
 72
     1
  1
20
  7
SLDTEXTSTYLE0
 73
     1
 44
1.0
  0
SPLINE
  5
F9
330
1F
100
AcDbEntity
  8
0
  6
Continuous
 62
     7
370
    15
100
AcDbSpline
210
0.0
220
0.0
230
1.0
 70
     8
 71
     3
 72
   110
 73
   106
 74
     0
 42
0.000000001
 43
0.00000001
 40
0.0
 40
0.0
 40
0.0
 40
0.0
 40
0.0004156820803226
 40
0.0061665334524846
 40
0.011252703039213
 40
0.0156741795065888
 40
0.0195932590050561
 40
0.0228034671012111
 40
0.0258251561817132
 40
0.0341046325612864
 40
0.0426048301043267
 40
0.0578211822725805
 40
0.0730375834314469
 40
0.0911522656654945
 40
0.1092666099854281
 40
0.127381369436193
 40
0.1412147656216927
 40
0.1550482561483619
 40
0.1688818848997453
 40
0.1827157686976251
 40
0.1965499484571522
 40
0.2101374417725606
 40
0.2237252697994576
 40
0.2373134924794016
 40
0.2509017508055825
 40
0.2611963608383842
 40
0.2714910665291638
 40
0.2818970519759971
 40
0.2927085020984195
 40
0.3029735879379588
 40
0.3125089097834257
 40
0.3206092544049057
 40
0.3294427055844094
 40
0.3385087264949376
 40
0.3472653358947086
 40
0.3563281384084229
 40
0.3653913551064565
 40
0.3744543687974257
 40
0.3847527995387097
 40
0.3950510724294422
 40
0.4053491483401636
 40
0.4156471478212287
 40
0.4259451558881365
 40
0.4362432681393681
 40
0.4465414554786081
 40
0.4568396606613674
 40
0.4671377669288759
 40
0.477435900796968
 40
0.4877341554022192
 40
0.4980323340165642
 40
0.5083303750744501
 40
0.5186284545485134
 40
0.5289266419896222
 40
0.539224813050603
 40
0.5495228810075821
 40
0.5598208390770313
 40
0.570118834135522
 40
0.5804169566524089
 40
0.5907153190148927
 40
0.6010138103499109
 40
0.6113125413718367
 40
0.6216110828931946
 40
0.62807049622255
 40
0.6345996958479354
 40
0.6414762064020796
 40
0.6457045697437035
 40
0.6499458674873828
 40
0.653670311242871
 40
0.656813606948767
 40
0.6595536411726157
 40
0.6627263719667748
 40
0.6665040001861758
 40
0.670824385392846
 40
0.6751379045865845
 40
0.6793153898907112
 40
0.6833568475515058
 40
0.6957405982278375
 40
0.7080939839951723
 40
0.7204472095504693
 40
0.7328003986053767
 40
0.7451536557378229
 40
0.7580664027398248
 40
0.7709787640552431
 40
0.7838908049436027
 40
0.7968025688993946
 40
0.809714092987368
 40
0.822625417423755
 40
0.8429139630201806
 40
0.8632023215090796
 40
0.8834902967924995
 40
0.9037787160476396
 40
0.9240671177589947
 40
0.9443554447079492
 40
0.9497115906795773
 40
0.9550669073831953
 40
0.9602579604957733
 40
0.96516225383174
 40
0.9698000862444535
 40
0.9728454926522356
 40
0.9765995454005358
 40
0.9810622357404933
 40
0.9862335520561075
 40
0.9921134812721588
 40
0.9987020004577822
 40
1.0
 40
1.0
 40
1.0
 40
1.0
 10
1418.237797870794
 20
3566.078717796182
 30
0.0
 10
1417.975143392231
 20
3566.076853854762
 30
0.0
 10
1414.078733839906
 20
3566.049202777969
 30
0.0
 10
1406.969242957375
 20
3565.979777842691
 30
0.0
 10
1397.329361037109
 20
3565.875596038798
 30
0.0
 10
1388.847497559371
 20
3565.767361208632
 30
0.0
 10
1381.551289464893
 20
3565.662946916855
 30
0.0
 10
1375.139779696131
 20
3565.561970956006
 30
0.0
 10
1365.97485897316
 20
3565.405878229084
 30
0.0
 10
1353.470728537669
 20
3565.16289639538
 30
0.0
 10
1333.271267993209
 20
3564.692936412007
 30
0.0
 10
1308.703206996889
 20
3563.97813380355
 30
0.0
 10
1278.09180304192
 20
3562.83210631882
 30
0.0
 10
1245.688916665363
 20
3561.285971527002
 30
0.0
 10
1211.514649879154
 20
3559.250572019784
 30
0.0
 10
1180.099103274031
 20
3556.89820774997
 30
0.0
 10
1151.450628588421
 20
3554.182881732865
 30
0.0
 10
1125.564560942586
 20
3551.187072531056
 30
0.0
 10
1099.787104024934
 20
3547.566245154511
 30
0.0
 10
1074.152819905381
 20
3543.219247059708
 30
0.0
 10
1048.856137661217
 20
3538.077538962704
 30
0.0
 10
1023.945804107333
 20
3532.061598465913
 30
0.0
 10
999.4766432271105
 20
3525.102305889225
 30
0.0
 10
975.3751166076489
 20
3517.070224040323
 30
0.0
 10
953.6206935435225
 20
3508.660503001483
 30
0.0
 10
934.1451265446136
 20
3500.155348882043
 30
0.0
 10
916.798236152279
 20
3491.778614178808
 30
0.0
 10
899.519626273104
 20
3482.570113249461
 30
0.0
 10
882.6624571845339
 20
3472.647938337784
 30
0.0
 10
866.7070257218754
 20
3462.289549662458
 30
0.0
 10
852.5796202518549
 20
3452.22592224469
 30
0.0
 10
839.5650708444521
 20
3442.144299623144
 30
0.0
 10
827.1761910754151
 20
3431.73043076325
 30
0.0
 10
814.9437594842144
 20
3420.493857521803
 30
0.0
 10
803.1234796307884
 20
3408.594306721336
 30
0.0
 10
791.8652667309896
 20
3396.132714920249
 30
0.0
 10
781.118307737059
 20
3382.945035708313
 30
0.0
 10
770.5834123842174
 20
3368.583436627137
 30
0.0
 10
760.3945143116619
 20
3353.004322764271
 30
0.0
 10
750.7069400868099
 20
3336.175880248272
 30
0.0
 10
741.9666638649014
 20
3318.80947896953
 30
0.0
 10
734.1984622021818
 20
3300.963705392794
 30
0.0
 10
727.42521417545
 20
3282.697172087947
 30
0.0
 10
721.6695741929008
 20
3264.068284757176
 30
0.0
 10
716.9535159214828
 20
3245.135998644586
 30
0.0
 10
713.2985216354676
 20
3225.960178367107
 30
0.0
 10
710.7261234294454
 20
3206.601860636851
 30
0.0
 10
709.2552189280569
 20
3187.123898272911
 30
0.0
 10
708.9082155880383
 20
3167.591189566925
 30
0.0
 10
709.6923766528218
 20
3148.071817748141
 30
0.0
 10
711.5890464643143
 20
3128.632475061503
 30
0.0
 10
714.5787452006349
 20
3109.336923722937
 30
0.0
 10
718.6414483449516
 20
3090.247113401334
 30
0.0
 10
723.7560714391577
 20
3071.423523983807
 30
0.0
 10
729.9014112266098
 20
3052.925722344409
 30
0.0
 10
737.0552644737289
 20
3034.81237416756
 30
0.0
 10
745.1952358436919
 20
3017.142017522704
 30
0.0
 10
754.2981694785193
 20
2999.973244033638
 30
0.0
 10
764.3426253768862
 20
2983.367268967382
 30
0.0
 10
775.3031545505808
 20
2967.385376207273
 30
0.0
 10
787.1448515885025
 20
2952.084079557749
 30
0.0
 10
798.2609803351971
 20
2939.335336529197
 30
0.0
 10
808.2970238252818
 20
2928.823372438149
 30
0.0
 10
817.1511140057157
 20
2920.160827077114
 30
0.0
 10
825.2622000605602
 20
2912.750299142035
 30
0.0
 10
832.4896818483014
 20
2906.502074777385
 30
0.0
 10
838.3309521404553
 20
2901.658177928891
 30
0.0
 10
843.7330397770393
 20
2897.348525797127
 30
0.0
 10
848.4629962950833
 20
2893.697840680996
 30
0.0
 10
852.9666358826476
 20
2890.318323341278
 30
0.0
 10
857.8332600347142
 20
2886.767881783093
 30
0.0
 10
863.5563488490645
 20
2882.727974730041
 30
0.0
 10
869.9362887209905
 20
2878.393392654238
 30
0.0
 10
876.6033510475544
 20
2874.044056078508
 30
0.0
 10
883.2004719444999
 20
2869.908614692327
 30
0.0
 10
894.1602140763811
 20
2863.298474708141
 30
0.0
 10
909.7789055514411
 20
2854.585517996578
 30
0.0
 10
930.4348758736039
 20
2844.349336115764
 30
0.0
 10
951.5391692894259
 20
2835.088582480898
 30
0.0
 10
973.0548491998559
 20
2826.776765435044
 30
0.0
 10
995.2662444638886
 20
2819.289635281657
 30
0.0
 10
1018.140001693806
 20
2812.64824061441
 30
0.0
 10
1041.622944667052
 20
2806.815900225582
 30
0.0
 10
1065.325670393452
 20
2801.81174962914
 30
0.0
 10
1089.201619494459
 20
2797.551534741827
 30
0.0
 10
1113.213389458248
 20
2793.952268142304
 30
0.0
 10
1141.922937028356
 20
2790.350506414448
 30
0.0
 10
1175.371639369203
 20
2787.051279939771
 30
0.0
 10
1213.565862608312
 20
2784.221294453721
 30
0.0
 10
1251.846092230432
 20
2781.962652871164
 30
0.0
 10
1290.190670043882
 20
2780.165642917222
 30
0.0
 10
1328.583147972952
 20
2778.807310319955
 30
0.0
 10
1357.581837975995
 20
2778.076549054021
 30
0.0
 10
1377.159511788727
 20
2777.694979163081
 30
0.0
 10
1387.203955659863
 20
2777.522280903246
 30
0.0
 10
1396.964085230991
 20
2777.375749323761
 30
0.0
 10
1406.271845196948
 20
2777.254723878133
 30
0.0
 10
1414.224681775114
 20
2777.165885613288
 30
0.0
 10
1421.451167775585
 20
2777.095452122087
 30
0.0
 10
1428.567288037291
 20
2777.034824057061
 30
0.0
 10
1437.027055498751
 20
2776.975025200386
 30
0.0
 10
1446.830548674569
 20
2776.921246934213
 30
0.0
 10
1457.97781469371
 20
2776.881882718333
 30
0.0
 10
1466.677592455078
 20
2776.861794125077
 30
0.0
 10
1471.661626549779
 20
2776.863494043515
 30
0.0
 10
1472.481921815228
 20
2776.863773823914
 30
0.0
  0
SPLINE
  5
FA
330
1F
100
AcDbEntity
  8
0
  6
Continuous
 62
     7
370
    15
100
AcDbSpline
210
0.0
220
0.0
230
1.0
 70
     8
 71
     3
 72
   121
 73
   117
 74
     0
 42
0.000000001
 43
0.00000001
 40
0.0
 40
0.0
 40
0.0
 40
0.0
 40
0.0050293409549356
 40
0.0097412781962238
 40
0.0139195574169021
 40
0.0175641693578415
 40
0.0206242353813472
 40
0.0232222105764583
 40
0.025762261930828
 40
0.0283289082021407
 40
0.0377124567579448
 40
0.0472561293038525
 40
0.0642984373317105
 40
0.0813408705353301
 40
0.1016295439030005
 40
0.1219182395241147
 40
0.142206531182798
 40
0.155792971587034
 40
0.169379547745627
 40
0.1829662021321773
 40
0.1965529429652558
 40
0.2101399090223935
 40
0.2237271082562729
 40
0.2373145846888578
 40
0.2509023809755909
 40
0.259726296211212
 40
0.2685503507038398
 40
0.2773743596950579
 40
0.28619838143425
 40
0.2950696130330821
 40
0.3042336408684034
 40
0.3137442100031004
 40
0.3180437222251448
 40
0.3224148819316781
 40
0.3264836149984627
 40
0.3300113753755958
 40
0.3329996654708405
 40
0.3359068709706002
 40
0.3391880868612274
 40
0.3428433495542381
 40
0.3468342908421908
 40
0.3562649802188079
 40
0.3653824476105175
 40
0.3744441888823881
 40
0.38474182116785
 40
0.3950400983715633
 40
0.405338247055377
 40
0.4156362047390592
 40
0.4259339736852087
 40
0.4362315046733347
 40
0.4465289121186369
 40
0.4568262801578916
 40
0.467123709767483
 40
0.4774212005452148
 40
0.4877187759998138
 40
0.4980162547699374
 40
0.5083136873342199
 40
0.518611276946018
 40
0.5289088305480081
 40
0.5392062341251984
 40
0.5495035974574543
 40
0.5598010362176484
 40
0.5700985281978255
 40
0.5803960635983189
 40
0.5906935286166985
 40
0.6009909738103357
 40
0.6112884666624442
 40
0.6215861041265125
 40
0.6304131184658709
 40
0.6392403243495323
 40
0.6480678325485983
 40
0.6568948501706365
 40
0.6657214639266437
 40
0.6745476799609446
 40
0.6835030037399301
 40
0.6876329705808175
 40
0.6918982368892705
 40
0.6962657016573754
 40
0.7002117386438247
 40
0.7035553842901726
 40
0.705760256811352
 40
0.707985348212711
 40
0.7105822928410908
 40
0.7135510722498654
 40
0.7168878998057864
 40
0.7244201948461707
 40
0.7315359105711042
 40
0.7383458861810273
 40
0.7451404621480456
 40
0.7589757024743023
 40
0.7728110787952027
 40
0.7866463280830729
 40
0.8004811798074113
 40
0.8143157080482888
 40
0.8279029130447165
 40
0.8414898727799531
 40
0.8550766174577696
 40
0.8686632903620939
 40
0.8859551224453132
 40
0.9032466769509612
 40
0.9205380528973272
 40
0.9378297027782526
 40
0.9454380810202723
 40
0.9530464292144549
 40
0.9604751641447872
 40
0.9673382837427953
 40
0.9692417757373494
 40
0.9713232506822357
 40
0.9737953568819694
 40
0.9766580907477983
 40
0.9799114480707031
 40
0.9835554230428523
 40
0.9883515713279118
 40
0.9936902786014998
 40
0.9995715337085084
 40
1.0
 40
1.0
 40
1.0
 40
1.0
 10
1472.481927714196
 20
2776.859709996085
 30
0.0
 10
1475.63621840717
 20
2776.859425430945
 30
0.0
 10
1481.745731249377
 20
2776.858874259685
 30
0.0
 10
1490.475844058698
 20
2776.874342297411
 30
0.0
 10
1498.337460274801
 20
2776.898183162527
 30
0.0
 10
1505.163010144952
 20
2776.927640886327
 30
0.0
 10
1510.997370137038
 20
2776.959268743598
 30
0.0
 10
1516.138920897761
 20
2776.992107610427
 30
0.0
 10
1520.970952757492
 20
2777.027294284252
 30
0.0
 10
1530.058449478657
 20
2777.101732616888
 30
0.0
 10
1543.537685732544
 20
2777.241436303664
 30
0.0
 10
1566.092277349581
 20
2777.558801881208
 30
0.0
 10
1593.443244729406
 20
2778.096292182073
 30
0.0
 10
1627.513017947113
 20
2779.039535621087
 30
0.0
 10
1663.587215792681
 20
2780.387833856452
 30
0.0
 10
1701.64134877904
 20
2782.265795165281
 30
0.0
 10
1735.441598328841
 20
2784.353383889656
 30
0.0
 10
1764.993013058149
 20
2786.599914294802
 30
0.0
 10
1790.311270608963
 20
2788.924707821721
 30
0.0
 10
1815.551231319523
 20
2791.731564135174
 30
0.0
 10
1840.690875144661
 20
2795.106568150486
 30
0.0
 10
1865.701035629793
 20
2799.140941010579
 30
0.0
 10
1890.544653366727
 20
2803.929069268884
 30
0.0
 10
1915.176306209115
 20
2809.561778438146
 30
0.0
 10
1936.693905033532
 20
2815.361844895072
 30
0.0
 10
1955.152653865228
 20
2821.037822371334
 30
0.0
 10
1970.633788594239
 20
2826.303312516288
 30
0.0
 10
1985.937291451929
 20
2832.028786302051
 30
0.0
 10
2001.073721684385
 20
2838.231820029335
 30
0.0
 10
2016.189178896159
 20
2844.995449843024
 30
0.0
 10
2031.445587646699
 20
2852.442808835578
 30
0.0
 10
2043.937707777213
 20
2859.104646717195
 30
0.0
 10
2053.673103990241
 20
2864.644806029261
 30
0.0
 10
2060.425892808761
 20
2868.645878133814
 30
0.0
 10
2066.703781554026
 20
2872.514186069
 30
0.0
 10
2072.201599450234
 20
2876.023522546562
 30
0.0
 10
2077.052781126356
 20
2879.215395187553
 30
0.0
 10
2081.737745864266
 20
2882.383777104043
 30
0.0
 10
2086.717734907739
 20
2885.850519322641
 30
0.0
 10
2092.187446939161
 20
2889.784201252275
 30
0.0
 10
2100.630406123173
 20
2896.079286563694
 30
0.0
 10
2111.522657450038
 20
2904.733432334348
 30
0.0
 10
2124.394438537261
 20
2915.925366543704
 30
0.0
 10
2137.148022958401
 20
2928.072470296419
 30
0.0
 10
2149.798274293423
 20
2941.394173419616
 30
0.0
 10
2162.196843509275
 20
2956.014779631483
 30
0.0
 10
2173.749492386352
 20
2971.355489680026
 30
0.0
 10
2184.429665292241
 20
2987.351907276078
 30
0.0
 10
2194.201477674366
 20
3003.95107487215
 30
0.0
 10
2203.043559431817
 20
3021.091298098991
 30
0.0
 10
2210.93252180908
 20
3038.714683077332
 30
0.0
 10
2217.845422366545
 20
3056.764047567193
 30
0.0
 10
2223.758742145407
 20
3075.182588453844
 30
0.0
 10
2228.649878376334
 20
3093.912861390807
 30
0.0
 10
2232.496690068863
 20
3112.896398979273
 30
0.0
 10
2235.277115225825
 20
3132.07346015264
 30
0.0
 10
2236.970844307585
 20
3151.382473112325
 30
0.0
 10
2237.556191852451
 20
3170.759842602473
 30
0.0
 10
2237.018153119017
 20
3190.138594177882
 30
0.0
 10
2235.373204488068
 20
3209.451849127022
 30
0.0
 10
2232.641776922388
 20
3228.636032570982
 30
0.0
 10
2228.844455880818
 20
3247.629745640548
 30
0.0
 10
2224.002883695522
 20
3266.373365135682
 30
0.0
 10
2218.13988334235
 20
3284.808762633155
 30
0.0
 10
2211.277098717419
 20
3302.878241281896
 30
0.0
 10
2203.436272089013
 20
3320.524154735047
 30
0.0
 10
2194.643620861169
 20
3337.690785763211
 30
0.0
 10
2185.38729053208
 20
3353.530531160021
 30
0.0
 10
2175.838327673064
 20
3368.080025449101
 30
0.0
 10
2166.148716489135
 20
3381.393455679546
 30
0.0
 10
2155.832604975972
 20
3394.196998400048
 30
0.0
 10
2144.917887820969
 20
3406.460084233064
 30
0.0
 10
2133.460826737625
 20
3418.185991419729
 30
0.0
 10
2121.44570340926
 20
3429.42628465213
 30
0.0
 10
2111.169687960486
 20
3438.235849766538
 30
0.0
 10
2102.830323119006
 20
3444.952948874642
 30
0.0
 10
2096.603952023037
 20
3449.772958782788
 30
0.0
 10
2090.377995479429
 20
3454.401574861247
 30
0.0
 10
2084.531901795142
 20
3458.583008627877
 30
0.0
 10
2079.717949543786
 20
3461.912067401428
 30
0.0
 10
2075.744972605888
 20
3464.590170256475
 30
0.0
 10
2072.131229219968
 20
3466.9768999768
 30
0.0
 10
2068.098167167341
 20
3469.582080718921
 30
0.0
 10
2063.455627880131
 20
3472.505146553137
 30
0.0
 10
2056.181421237668
 20
3476.954341942679
 30
0.0
 10
2046.601297242819
 20
3482.52701731549
 30
0.0
 10
2034.982530801349
 20
3488.839314141285
 30
0.0
 10
2023.601475688321
 20
3494.629914814982
 30
0.0
 10
2008.335829508317
 20
3501.911791571325
 30
0.0
 10
1988.815554859518
 20
3510.337826485904
 30
0.0
 10
1964.81255199796
 20
3519.31678015568
 30
0.0
 10
1940.379869141951
 20
3527.155674132507
 30
0.0
 10
1915.594823855773
 20
3533.923711980915
 30
0.0
 10
1890.677648408986
 20
3539.67863976947
 30
0.0
 10
1865.691635490986
 20
3544.532555336697
 30
0.0
 10
1840.687033563863
 20
3548.594372971111
 30
0.0
 10
1815.551189374705
 20
3551.988782523983
 30
0.0
 10
1788.019150304283
 20
3555.061081029833
 30
0.0
 10
1758.085411609601
 20
3557.726830513174
 30
0.0
 10
1725.757443269652
 20
3559.980583105039
 30
0.0
 10
1693.364192692986
 20
3561.817545142784
 30
0.0
 10
1666.976527329908
 20
3563.008025034815
 30
0.0
 10
1646.628734064639
 20
3563.772275179409
 30
0.0
 10
1632.448280513105
 20
3564.242925430175
 30
0.0
 10
1618.729621155794
 20
3564.642130364414
 30
0.0
 10
1608.581681544037
 20
3564.900162951409
 30
0.0
 10
1601.783329583585
 20
3565.058538746515
 30
0.0
 10
1597.736508721651
 20
3565.14895601224
 30
0.0
 10
1593.088186402397
 20
3565.247839348238
 30
0.0
 10
1587.70496050749
 20
3565.355748238
 30
0.0
 10
1581.58670616787
 20
3565.470026626426
 30
0.0
 10
1574.255868670643
 20
3565.595857519908
 30
0.0
 10
1565.616949527777
 20
3565.729335129831
 30
0.0
 10
1555.574366869611
 20
3565.861757472842
 30
0.0
 10
1548.270060797045
 20
3565.949237063842
 30
0.0
 10
1544.313120929319
 20
3565.984947858412
 30
0.0
 10
1544.044422005278
 20
3565.987372826291
 30
0.0
  0
SPLINE
  5
FB
330
1F
100
AcDbEntity
  8
0
  6
Continuous
 62
     7
370
    15
100
AcDbSpline
210
0.0
220
0.0
230
1.0
 70
     8
 71
     3
 72
    10
 73
     6
 74
     0
 42
0.000000001
 43
0.00000001
 40
0.0
 40
0.0
 40
0.0
 40
0.0
 40
0.4133508958524797
 40
0.5965886138545241
 40
1.0
 40
1.0
 40
1.0
 40
1.0
 10
1544.044330324858
 20
3565.991880058494
 30
0.0
 10
1526.710197683852
 20
3566.111161540608
 30
0.0
 10
1501.691874829271
 20
3566.283320291894
 30
0.0
 10
1459.753580184465
 20
3566.305535793503
 30
0.0
 10
1435.153896057454
 20
3566.175148027535
 30
0.0
 10
1418.2378339647
 20
3566.085486406928
 30
0.0
  0
CIRCLE
  5
FC
330
1F
100
AcDbEntity
  8
0
  6
Continuous
 62
     7
370
    15
100
AcDbCircle
 10
1475.5475439212
 20
3168.3161872239
 30
0.0
 40
24.99984309076376
  0
SPLINE
  5
FD
330
1F
100
AcDbEntity
  8
0
  6
Continuous
 62
     7
370
    15
100
AcDbSpline
210
0.0
220
0.0
230
1.0
 70
     8
 71
     3
 72
    26
 73
    22
 74
     0
 42
0.000000001
 43
0.00000001
 40
0.0
 40
0.0
 40
0.0
 40
0.0
 40
0.1249917529299156
 40
0.2503267928427748
 40
0.3126069177763036
 40
0.3754898244743123
 40
0.4186786891678762
 40
0.4380683936217395
 40
0.4694518498831056
 40
0.5008366449594398
 40
0.5630503905810538
 40
0.6257201786168253
 40
0.6872735727774208
 40
0.7503862088131623
 40
0.8127850386832943
 40
0.8428859534300223
 40
0.8750943327451077
 40
0.9042586406609053
 40
0.9376078483642909
 40
0.9547605685794758
 40
1.0
 40
1.0
 40
1.0
 40
1.0
 10
1460.052340847753
 20
3523.880806504829
 30
0.0
 10
1459.308925726682
 20
3523.876711769848
 30
0.0
 10
1457.82005371196
 20
3523.868511053789
 30
0.0
 10
1455.960762319077
 20
3523.856697777167
 30
0.0
 10
1454.470891440515
 20
3523.846371501267
 30
0.0
 10
1453.469570856982
 20
3523.839501628589
 30
0.0
 10
1452.72342071371
 20
3523.833184341263
 30
0.0
 10
1452.164484118304
 20
3523.829057615456
 30
0.0
 10
1451.676614285978
 20
3523.809455126424
 30
0.0
 10
1450.940456410854
 20
3523.757180655896
 30
0.0
 10
1450.037247949262
 20
3523.646081433129
 30
0.0
 10
1449.013439254261
 20
3523.443608135586
 30
0.0
 10
1448.065075305384
 20
3523.171133405494
 30
0.0
 10
1447.228008413781
 20
3522.834506775214
 30
0.0
 10
1446.651447149697
 20
3522.504537276016
 30
0.0
 10
1446.278276906018
 20
3522.216365808755
 30
0.0
 10
1446.051362548853
 20
3521.994891663042
 30
0.0
 10
1445.868242852285
 20
3521.756753387072
 30
0.0
 10
1445.762392461299
 20
3521.551723462762
 30
0.0
 10
1445.679523927507
 20
3521.301011143622
 30
0.0
 10
1445.679643580215
 20
3521.137484803127
 30
0.0
 10
1445.679730338249
 20
3521.018914783143
 30
0.0
  0
SPLINE
  5
FE
330
1F
100
AcDbEntity
  8
0
  6
Continuous
 62
     7
370
    15
100
AcDbSpline
210
0.0
220
0.0
230
1.0
 70
     8
 71
     3
 72
    29
 73
    25
 74
     0
 42
0.000000001
 43
0.00000001
 40
0.0
 40
0.0
 40
0.0
 40
0.0
 40
0.0160239429663701
 40
0.0302687665352885
 40
0.0427384128270578
 40
0.0534317465520415
 40
0.062345687182141
 40
0.0952021247095707
 40
0.1248942377782486
 40
0.1568400458147216
 40
0.1872390641617461
 40
0.2496382583578317
 40
0.3739616933409442
 40
0.4361250130212047
 40
0.4986057819535957
 40
0.529753867235587
 40
0.5612013831704283
 40
0.5692731634968273
 40
0.5925443400503972
 40
0.6238870021569031
 40
0.6865724350420651
 40
0.749258094044666
 40
0.8580346843748096
 40
1.0
 40
1.0
 40
1.0
 40
1.0
 10
1445.679730338249
 20
3521.018914783143
 30
0.0
 10
1445.676971960272
 20
3520.977278729711
 30
0.0
 10
1445.671761463756
 20
3520.898629424517
 30
0.0
 10
1445.682272506146
 20
3520.787922607823
 30
0.0
 10
1445.701464463148
 20
3520.691386157081
 30
0.0
 10
1445.726249453692
 20
3520.608998952167
 30
0.0
 10
1445.777704527639
 20
3520.475193826323
 30
0.0
 10
1445.879778040395
 20
3520.296268502254
 30
0.0
 10
1446.074783363897
 20
3520.068319791035
 30
0.0
 10
1446.318522856011
 20
3519.857533610937
 30
0.0
 10
1446.715095794564
 20
3519.589148495564
 30
0.0
 10
1447.561742075008
 20
3519.172286407461
 30
0.0
 10
1448.814653676177
 20
3518.822936661042
 30
0.0
 10
1450.19473272035
 20
3518.610539004702
 30
0.0
 10
1451.096599392165
 20
3518.531537071055
 30
0.0
 10
1451.830486504098
 20
3518.50138186239
 30
0.0
 10
1452.24748986507
 20
3518.495591257129
 30
0.0
 10
1452.617981497013
 20
3518.498982446528
 30
0.0
 10
1452.987863790278
 20
3518.501632600807
 30
0.0
 10
1453.679998202733
 20
3518.506467786177
 30
0.0
 10
1454.604703733014
 20
3518.512746026825
 30
0.0
 10
1455.986310754268
 20
3518.522784579827
 30
0.0
 10
1457.83572569882
 20
3518.534760134467
 30
0.0
 10
1459.31526618716
 20
3518.542704780525
 30
0.0
 10
1460.152953974557
 20
3518.547202888573
 30
0.0
  0
SPLINE
  5
FF
330
1F
100
AcDbEntity
  8
0
  6
Continuous
 62
     7
370
    15
100
AcDbSpline
210
0.0
220
0.0
230
1.0
 70
     8
 71
     3
 72
    36
 73
    32
 74
     0
 42
0.000000001
 43
0.00000001
 40
0.0
 40
0.0
 40
0.0
 40
0.0
 40
0.0625336177962013
 40
0.1250671531469311
 40
0.1563339614096496
 40
0.1876007627538787
 40
0.2501342830385292
 40
0.3758256144375626
 40
0.5002688652464985
 40
0.5419575352531723
 40
0.5836462056153985
 40
0.6253348758492485
 40
0.6670235453134928
 40
0.7087122116268935
 40
0.750400882845987
 40
0.7565133150675435
 40
0.7626743538042912
 40
0.7688838390260091
 40
0.7751423448707301
 40
0.7814506229244094
 40
0.7970331827099093
 40
0.8125680294029815
 40
0.8438147111680232
 40
0.8749802341887943
 40
0.905499506712654
 40
0.9373949007117429
 40
0.9522044413015734
 40
0.9685138155723818
 40
0.9766409220967525
 40
0.9871379136938804
 40
0.9999999999999999
 40
0.9999999999999999
 40
0.9999999999999999
 40
0.9999999999999999
 10
1467.136250985353
 20
3518.576927415306
 30
0.0
 10
1467.972286365661
 20
3518.57974605383
 30
0.0
 10
1469.644356024031
 20
3518.585383327163
 30
0.0
 10
1471.734454986181
 20
3518.587793079425
 30
0.0
 10
1473.406525027303
 20
3518.593192403282
 30
0.0
 10
1475.078595681235
 20
3518.598510379842
 30
0.0
 10
1478.013080940838
 20
3518.599228118833
 30
0.0
 10
1482.193280037985
 20
3518.597603849876
 30
0.0
 10
1486.094788962203
 20
3518.588973029798
 30
0.0
 10
1488.873220694433
 20
3518.57989232648
 30
0.0
 10
1490.545271642363
 20
3518.573441334233
 30
0.0
 10
1492.217319970452
 20
3518.566156172665
 30
0.0
 10
1493.889358961001
 20
3518.557528549919
 30
0.0
 10
1495.561411139978
 20
3518.549439559187
 30
0.0
 10
1496.757779509941
 20
3518.539016681053
 30
0.0
 10
1497.479248109479
 20
3518.537606251569
 30
0.0
 10
1497.726118129847
 20
3518.541349794763
 30
0.0
 10
1497.97449571798
 20
3518.548282017978
 30
0.0
 10
1498.224118774956
 20
3518.558691504521
 30
0.0
 10
1498.596891279731
 20
3518.579184825696
 30
0.0
 10
1499.088559158328
 20
3518.617964584081
 30
0.0
 10
1499.892336924102
 20
3518.710423247355
 30
0.0
 10
1500.859408977261
 20
3518.879206515647
 30
0.0
 10
1501.911012758015
 20
3519.165466014375
 30
0.0
 10
1502.821059126795
 20
3519.539243051748
 30
0.0
 10
1503.401649134076
 20
3519.913050738754
 30
0.0
 10
1503.737447252633
 20
3520.250277355638
 30
0.0
 10
1503.885359384894
 20
3520.470588005881
 30
0.0
 10
1503.969233204391
 20
3520.672344985051
 30
0.0
 10
1504.016478266232
 20
3520.856294811641
 30
0.0
 10
1504.011191933961
 20
3520.9939523618
 30
0.0
 10
1504.008281148604
 20
3521.069750015208
 30
0.0
  0
SPLINE
  5
100
330
1F
100
AcDbEntity
  8
0
  6
Continuous
 62
     7
370
    15
100
AcDbSpline
210
0.0
220
0.0
230
1.0
 70
     8
 71
     3
 72
    35
 73
    31
 74
     0
 42
0.000000001
 43
0.00000001
 40
0.0
 40
0.0
 40
0.0
 40
0.0
 40
0.0051941646094061
 40
0.0103878988648125
 40
0.0155829097129438
 40
0.0234295670804947
 40
0.0310604494111092
 40
0.0476214642164959
 40
0.0622149725968192
 40
0.093264287702805
 40
0.1242947712092956
 40
0.1556588596780691
 40
0.1864295423424897
 40
0.2175750599309936
 40
0.2485125034754156
 40
0.2574905243891323
 40
0.2783652373869783
 40
0.3111362025862528
 40
0.3420484655283746
 40
0.3737601701645555
 40
0.4363887252743689
 40
0.4990081608571451
 40
0.6235392716774738
 40
0.7495041508621798
 40
0.8121281462528401
 40
0.8434401234219907
 40
0.8747521038295862
 40
0.9060640747657727
 40
0.9373760433357357
 40
0.9999999999999999
 40
0.9999999999999999
 40
0.9999999999999999
 40
0.9999999999999999
 10
1504.008281148604
 20
3521.069750015208
 30
0.0
 10
1504.010601966614
 20
3521.100553959197
 30
0.0
 10
1504.015243410346
 20
3521.162159294964
 30
0.0
 10
1504.01079291699
 20
3521.254688141762
 30
0.0
 10
1503.996482187091
 20
3521.36310993758
 30
0.0
 10
1503.966273545192
 20
3521.485680636258
 30
0.0
 10
1503.894119533253
 20
3521.674244807746
 30
0.0
 10
1503.759699827669
 20
3521.89914727784
 30
0.0
 10
1503.452037526627
 20
3522.247699374705
 30
0.0
 10
1502.9166736225
 20
3522.648297510331
 30
0.0
 10
1502.054426284331
 20
3523.067608446398
 30
0.0
 10
1501.033251188975
 20
3523.404958756861
 30
0.0
 10
1499.895672466989
 20
3523.656885312031
 30
0.0
 10
1498.688147284738
 20
3523.817564881789
 30
0.0
 10
1497.732868945092
 20
3523.873197512983
 30
0.0
 10
1496.91439373755
 20
3523.877466506363
 30
0.0
 10
1496.07130878631
 20
3523.883492178579
 30
0.0
 10
1494.932881856478
 20
3523.889476486655
 30
0.0
 10
1493.648566970154
 20
3523.896290562286
 30
0.0
 10
1491.962265943036
 20
3523.904250897915
 30
0.0
 10
1489.849080475306
 20
3523.912996457361
 30
0.0
 10
1486.486234230394
 20
3523.924058783711
 30
0.0
 10
1482.270657368131
 20
3523.932962165257
 30
0.0
 10
1478.055013315881
 20
3523.934244474955
 30
0.0
 10
1475.09440734022
 20
3523.933393337954
 30
0.0
 10
1473.408158475804
 20
3523.927835215598
 30
0.0
 10
1472.14347348448
 20
3523.923371410842
 30
0.0
 10
1470.878781729545
 20
3523.921654693475
 30
0.0
 10
1469.192529153127
 20
3523.917931427256
 30
0.0
 10
1467.927843375229
 20
3523.913771249579
 30
0.0
 10
1467.084719435676
 20
3523.910997797507
 30
0.0
  0
LINE
  5
101
330
1F
100
AcDbEntity
  8
0
  6
Continuous
 62
     7
370
    15
100
AcDbLine
 10
1467.0847194357
 20
3523.9109971996
 30
0.0
 11
1460.0523576568
 21
3523.8808073784
 31
0.0
  0
LINE
  5
102
330
1F
100
AcDbEntity
  8
0
  6
Continuous
 62
     7
370
    15
100
AcDbLine
 10
1460.1529539746
 20
3518.5472038039
 30
0.0
 11
1467.1362509854
 21
3518.5769267383
 31
0.0
  0
CIRCLE
  5
103
330
1F
100
AcDbEntity
  8
0
  6
Continuous
 62
     7
370
    15
100
AcDbCircle
 10
1475.5475439212
 20
3168.3161872239
 30
0.0
 40
25.00041711602989
  0
LINE
  5
104
330
1F
100
AcDbEntity
  8
SKETCH
370
    15
100
AcDbLine
 10
1472.7313302864
 20
3165.5411893539
 30
0.0
 11
709.1260557198
 21
3165.5411893539
 31
0.0
  0
LINE
  5
105
330
1F
100
AcDbEntity
  8
SKETCH
370
    15
100
AcDbLine
 10
1472.7313302864
 20
3165.5411893539
 30
0.0
 11
1472.4815391605
 21
2777.1437319509
 31
0.0
  0
LINE
  5
106
330
1F
100
AcDbEntity
  8
SKETCH
370
    15
100
AcDbLine
 10
1472.7313302864
 20
3165.5411893539
 30
0.0
 11
1568.662131987
 21
3261.4719910544
 31
0.0
  0
LINE
  5
107
330
1F
100
AcDbEntity
  8
SKETCH
370
    15
100
AcDbLine
 10
709.1727749029
 20
3266.4522920316
 30
0.0
 11
709.1727749029
 21
3740.3539416743
 31
0.0
  0
LINE
  5
108
330
1F
100
AcDbEntity
  8
SKETCH
370
    15
100
AcDbLine
 10
709.1727749029
 20
3740.3539416743
 30
0.0
 11
2236.6011952595
 21
3740.3539416743
 31
0.0
  0
LINE
  5
109
330
1F
100
AcDbEntity
  8
SKETCH
370
    15
100
AcDbLine
 10
2236.6011952595
 20
3740.3539416743
 30
0.0
 11
2236.6011952595
 21
3240.8759550877
 31
0.0
  0
LINE
  5
10A
330
1F
100
AcDbEntity
  8
SKETCH
370
    15
100
AcDbLine
 10
1784.5751761977
 20
3562.7353174359
 30
0.0
 11
2396.1554412309
 21
3562.7353174359
 31
0.0
  0
LINE
  5
10B
330
1F
100
AcDbEntity
  8
SKETCH
370
    15
100
AcDbLine
 10
2396.1554412309
 20
3562.7353174359
 30
0.0
 11
2396.1554412309
 21
2777.1437319509
 31
0.0
  0
LINE
  5
10C
330
1F
100
AcDbEntity
  8
SKETCH
370
    15
100
AcDbLine
 10
2396.1554412309
 20
2777.1437319509
 30
0.0
 11
1784.5751761977
 21
2777.1437319509
 31
0.0
  0
MTEXT
  5
10D
330
1F
100
AcDbEntity
  8
SKETCH
100
AcDbMText
 10
1429.3859360952
 20
2932.9504094116
 30
0.0
 40
26.4583333333
 41
0.0
 71
     1
 72
     1
  1
395
  7
SLDTEXTSTYLE0
 11
-3.491481338843133E-15
 21
1.0
 31
0.0
 73
     1
 44
1.0
  0
INSERT
  5
113
330
1F
100
AcDbEntity
  8
SKETCH
100
AcDbBlockReference
  2
SW_NOTE_0
 10
1578.4994316053
 20
3250.3578389871
 30
0.0
  0
SPLINE
  5
114
330
1F
100
AcDbEntity
  8
0
  6
Continuous
 62
     7
370
    15
100
AcDbSpline
210
0.0
220
0.0
230
1.0
 70
     8
 71
     3
 72
    30
 73
    26
 74
     0
 42
0.000000001
 43
0.00000001
 40
0.0
 40
0.0
 40
0.0
 40
0.0
 40
0.0254460107771707
 40
0.0540624403661051
 40
0.0938486500850633
 40
0.1305351496878469
 40
0.1629048794775953
 40
0.1900526823044272
 40
0.2085393595087055
 40
0.215742736697309
 40
0.2259544973724052
 40
0.2423419000366076
 40
0.2649634594170159
 40
0.2938365591317924
 40
0.3289676854478085
 40
0.3703610886003078
 40
0.4180229847840085
 40
0.4719679212925455
 40
0.5322565582136733
 40
0.5990104968059695
 40
0.6724149222790282
 40
0.7527148879693899
 40
0.8397135824442047
 40
0.932816203130894
 40
1.0
 40
1.0
 40
1.0
 40
1.0
 10
1832.84665462709
 20
585.5783484931358
 30
0.0
 10
1831.928381225389
 20
585.0402928749158
 30
0.0
 10
1829.977423118283
 20
583.8971431675458
 30
0.0
 10
1826.658751614174
 20
582.0404281291492
 30
0.0
 10
1823.08240276542
 20
580.1153853407505
 30
0.0
 10
1819.379906178234
 20
578.2154608313876
 30
0.0
 10
1816.075782715338
 20
576.5924122619476
 30
0.0
 10
1813.394778260164
 20
575.3253216361779
 30
0.0
 10
1811.547104000892
 20
574.4781643678763
 30
0.0
 10
1810.294858297681
 20
573.9137081335921
 30
0.0
 10
1808.964459108164
 20
573.3213651236207
 30
0.0
 10
1807.01358915764
 20
572.4704982350426
 30
0.0
 10
1804.278803354908
 20
571.3130417573085
 30
0.0
 10
1800.759282664953
 20
569.8834252677036
 30
0.0
 10
1796.434918113254
 20
568.2167083200675
 30
0.0
 10
1791.291579868157
 20
566.3598935628662
 30
0.0
 10
1785.311129485815
 20
564.3671964879933
 30
0.0
 10
1778.474142436421
 20
562.3010391244885
 30
0.0
 10
1770.756549045742
 20
560.2330894052229
 30
0.0
 10
1762.129274969312
 20
558.2440378291111
 30
0.0
 10
1752.559050143802
 20
556.4226289371001
 30
0.0
 10
1742.032091268978
 20
554.8729682538134
 30
0.0
 10
1730.575998964089
 20
553.6976270720332
 30
0.0
 10
1719.653065576059
 20
553.1807751214162
 30
0.0
 10
1712.568253201376
 20
552.9946117259467
 30
0.0
 10
1709.598665367954
 20
552.9165816349608
 30
0.0
  0
CIRCLE
  5
115
330
1F
100
AcDbEntity
  8
0
  6
Continuous
 62
     7
370
    15
100
AcDbCircle
 10
1475.5475439212
 20
790.3287165532
 30
0.0
 40
24.99984309076353
  0
LINE
  5
116
330
1F
100
AcDbEntity
  8
0
  6
Continuous
 62
     7
370
    15
100
AcDbLine
 10
1518.7695741988
 20
401.3880030608
 30
0.0
 11
1521.5069076289
 21
401.6845999466
 31
0.0
  0
LINE
  5
117
330
1F
100
AcDbEntity
  8
0
  6
Continuous
 62
     7
370
    15
100
AcDbLine
 10
1432.7685738115
 20
401.6006884455
 30
0.0
 11
1433.9641858757
 21
401.4188515469
 31
0.0
  0
SPLINE
  5
118
330
1F
100
AcDbEntity
  8
0
  6
Continuous
 62
     7
370
    15
100
AcDbSpline
210
0.0
220
0.0
230
1.0
 70
     8
 71
     3
 72
    25
 73
    21
 74
     0
 42
0.000000001
 43
0.00000001
 40
0.0
 40
0.0
 40
0.0
 40
0.0
 40
0.0931539590121102
 40
0.1774086352375719
 40
0.2528689564579915
 40
0.3196164314871989
 40
0.3777138695991862
 40
0.42640060566616
 40
0.467607128816416
 40
0.5064131041429005
 40
0.5437314671904848
 40
0.6232227626308546
 40
0.7004418062255067
 40
0.7202852077580867
 40
0.7445755563161783
 40
0.7741045886991622
 40
0.8088638000749213
 40
0.8633285284346003
 40
0.9270492785056687
 40
1.0
 40
1.0
 40
1.0
 40
1.0
 10
1418.2378339647
 20
392.5594173701328
 30
0.0
 10
1422.143773642256
 20
392.533823948428
 30
0.0
 10
1429.582506626491
 20
392.485082122918
 30
0.0
 10
1440.186058596628
 20
392.4330047031441
 30
0.0
 10
1449.682649715132
 20
392.3968263040019
 30
0.0
 10
1458.082604596846
 20
392.3741129627216
 30
0.0
 10
1465.359931198095
 20
392.3614241241667
 30
0.0
 10
1471.566236868936
 20
392.3558006388511
 30
0.0
 10
1476.963553786512
 20
392.3547258771677
 30
0.0
 10
1481.884137736914
 20
392.3568798479838
 30
0.0
 10
1488.410317439366
 20
392.3637126967467
 30
0.0
 10
1496.547479526007
 20
392.3798723980948
 30
0.0
 10
1503.951744352533
 20
392.403986374178
 30
0.0
 10
1509.040964115869
 20
392.4245955884758
 30
0.0
 10
1512.130178278385
 20
392.4382098654121
 30
0.0
 10
1515.844899051357
 20
392.456220542668
 30
0.0
 10
1520.825001762121
 20
392.4829746748938
 30
0.0
 10
1527.238895044271
 20
392.5222712377059
 30
0.0
 10
1535.254219066673
 20
392.5785438753871
 30
0.0
 10
1540.985279425046
 20
392.6271039520695
 30
0.0
 10
1544.044330324858
 20
392.6530237185665
 30
0.0
  0
SPLINE
  5
119
330
1F
100
AcDbEntity
  8
0
  6
Continuous
 62
     7
370
    15
100
AcDbSpline
210
0.0
220
0.0
230
1.0
 70
     8
 71
     3
 72
   118
 73
   114
 74
     0
 42
0.000000001
 43
0.00000001
 40
0.0
 40
0.0
 40
0.0
 40
0.0
 40
0.00042024124225
 40
0.006171098178104
 40
0.0112572257107457
 40
0.015678609970868
 40
0.0195975459449791
 40
0.0228076222566973
 40
0.0258293644832818
 40
0.034109005848963
 40
0.042609365577594
 40
0.0578259842709348
 40
0.0730426862229264
 40
0.0911575963908681
 40
0.1092724059254259
 40
0.1273876060085922
 40
0.1412212944641345
 40
0.1550550442131313
 40
0.1688889760493862
 40
0.1827231544448329
 40
0.196557625638219
 40
0.2101454052577396
 40
0.2237335737512776
 40
0.2373219478727943
 40
0.2509102592300733
 40
0.2606029051915574
 40
0.2705629802080798
 40
0.2745842452445305
 40
0.2784785218397776
 40
0.2819576249845252
 40
0.2850184045697778
 40
0.2874080407167305
 40
0.2900008177309918
 40
0.293092095931916
 40
0.2966819170158401
 40
0.3006396381668742
 40
0.3045369950944364
 40
0.308340567436555
 40
0.3120503570096804
 40
0.321355557476
 40
0.3303298727785504
 40
0.3391563133941815
 40
0.3479831451511253
 40
0.3568105609000229
 40
0.3656378876138593
 40
0.3744649980188507
 40
0.3847627135239053
 40
0.3950602670569633
 40
0.4053577322133741
 40
0.4156551942893298
 40
0.4259527156274309
 40
0.4362502477277234
 40
0.4465477193979702
 40
0.4568451269234138
 40
0.4671425018224155
 40
0.4774400086097305
 40
0.4877376481048697
 40
0.4980351292581734
 40
0.5083325798689464
 40
0.5186301503202759
 40
0.5289276896306027
 40
0.5392251515923362
 40
0.5495225518537481
 40
0.5598199444444977
 40
0.5701174322817436
 40
0.5804150937512059
 40
0.590713022115717
 40
0.6010110817874397
 40
0.611309415638938
 40
0.6216073092726617
 40
0.6285276388893399
 40
0.6354477059337952
 40
0.6423675362760007
 40
0.649323984307616
 40
0.6566375951399638
 40
0.6608441208532808
 40
0.6651208666899568
 40
0.6689397341619165
 40
0.6721775433821878
 40
0.6743174758172453
 40
0.6765250356185949
 40
0.6790912828942984
 40
0.6820161995498262
 40
0.6933772909645974
 40
0.7039699016422795
 40
0.7142645201107312
 40
0.7245590738618027
 40
0.7348536275732928
 40
0.7451482207453801
 40
0.7580609662986314
 40
0.7709733813222126
 40
0.7838855199380326
 40
0.7967974206906187
 40
0.8097091074630589
 40
0.8226206245558743
 40
0.8429095051492966
 40
0.8631982283315944
 40
0.8834865742719779
 40
0.9037753179145704
 40
0.9240639771616939
 40
0.9443524877947437
 40
0.9497086728179321
 40
0.955064031116678
 40
0.9602552186886836
 40
0.9651596190657882
 40
0.9697974577661534
 40
0.9728426014539521
 40
0.9765964303133352
 40
0.9810589353889828
 40
0.9862301045770051
 40
0.9921099262678812
 40
0.998698379310208
 40
1.0
 40
1.0
 40
1.0
 40
1.0
 10
1544.044422477744
 20
392.6575123968507
 30
0.0
 10
1544.307963080776
 20
392.6598904613876
 30
0.0
 10
1548.177966240205
 20
392.6948115216164
 30
0.0
 10
1555.236961402765
 20
392.7791864892144
 30
0.0
 10
1564.804444921512
 20
392.9043882442671
 30
0.0
 10
1573.222510856143
 20
393.0324546306293
 30
0.0
 10
1580.463739957856
 20
393.1547946437845
 30
0.0
 10
1586.826975308793
 20
393.2722142219885
 30
0.0
 10
1595.923096886795
 20
393.4526744395216
 30
0.0
 10
1608.333389087605
 20
393.7310480168462
 30
0.0
 10
1628.380640323717
 20
394.2634309493355
 30
0.0
 10
1652.762104947989
 20
395.0633486486983
 30
0.0
 10
1683.136773836693
 20
396.3306798906668
 30
0.0
 10
1715.281817989926
 20
398.0233481719817
 30
0.0
 10
1749.172245718924
 20
400.234357955759
 30
0.0
 10
1780.308660994508
 20
402.8344351940987
 30
0.0
 10
1808.684145396433
 20
405.8313993039257
 30
0.0
 10
1834.306918926554
 20
409.1242248455687
 30
0.0
 10
1859.802452017612
 20
413.0832584220334
 30
0.0
 10
1885.13251911858
 20
417.8109391406272
 30
0.0
 10
1910.101684077878
 20
423.3694988926118
 30
0.0
 10
1934.658808780704
 20
429.8340695277302
 30
0.0
 10
1958.745492813034
 20
437.2717814328033
 30
0.0
 10
1982.435210418763
 20
445.7973838579606
 30
0.0
 10
2003.443910135274
 20
454.5233607987452
 30
0.0
 10
2022.020856422189
 20
463.1757342103459
 30
0.0
 10
2035.013605554226
 20
469.8168821439654
 30
0.0
 10
2044.679981309174
 20
475.0965659828119
 30
0.0
 10
2050.788139112659
 20
478.558370078156
 30
0.0
 10
2056.333911660386
 20
481.8108941864156
 30
0.0
 10
2061.042864751738
 20
484.6571004009954
 30
0.0
 10
2065.255780384796
 20
487.268080923454
 30
0.0
 10
2069.457606301739
 20
489.9325089233334
 30
0.0
 10
2074.247675464754
 20
493.0503642423395
 30
0.0
 10
2079.692258019777
 20
496.7049235743259
 30
0.0
 10
2085.485850801213
 20
500.7315567989803
 30
0.0
 10
2091.317729916259
 20
504.934949328226
 30
0.0
 10
2096.95585185393
 20
509.1470742357009
 30
0.0
 10
2105.161670285564
 20
515.4972268357387
 30
0.0
 10
2115.646648948289
 20
524.1239062500873
 30
0.0
 10
2128.105299736158
 20
535.3237843197552
 30
0.0
 10
2139.856805658087
 20
546.8721045195883
 30
0.0
 10
2151.019887697375
 20
558.8952043654392
 30
0.0
 10
2161.610459826354
 20
571.4574748372759
 30
0.0
 10
2171.581610562961
 20
584.5486132197924
 30
0.0
 10
2181.436896697192
 20
598.8802087677283
 30
0.0
 10
2191.02478389447
 20
614.5102122837877
 30
0.0
 10
2200.175714770491
 20
631.4781894929575
 30
0.0
 10
2208.384577744483
 20
648.9469534035252
 30
0.0
 10
2215.625396457775
 20
666.8606438880742
 30
0.0
 10
2221.874058593397
 20
685.1626420469515
 30
0.0
 10
2227.110147429176
 20
703.79483431899
 30
0.0
 10
2231.310420731641
 20
722.6996413873894
 30
0.0
 10
2234.453233535987
 20
741.8179204410134
 30
0.0
 10
2236.516844500843
 20
761.0890926352714
 30
0.0
 10
2237.482537496469
 20
780.4504184143682
 30
0.0
 10
2237.327619325201
 20
799.8364042528809
 30
0.0
 10
2236.056100293094
 20
819.1793028264007
 30
0.0
 10
2233.690138578106
 20
838.4143446778962
 30
0.0
 10
2230.249639033177
 20
857.4792395577758
 30
0.0
 10
2225.756364829738
 20
876.3136050749724
 30
0.0
 10
2220.232384619739
 20
894.8585275585648
 30
0.0
 10
2213.700011983811
 20
913.0561820453299
 30
0.0
 10
2206.182697830609
 20
930.8497026633887
 30
0.0
 10
2197.70304526008
 20
948.181803004361
 30
0.0
 10
2188.285701498106
 20
964.9958382022031
 30
0.0
 10
2177.950174190368
 20
981.2300971715487
 30
0.0
 10
2166.72794797606
 20
996.8286691794392
 30
0.0
 10
2154.65018918845
 20
1011.732850397158
 30
0.0
 10
2143.169140568403
 20
1024.345896217496
 30
0.0
 10
2132.623682938389
 20
1034.925199209755
 30
0.0
 10
2123.245464506956
 20
1043.688226821073
 30
0.0
 10
2113.563122139785
 20
1052.131255109598
 30
0.0
 10
2103.423534821615
 20
1060.394020577953
 30
0.0
 10
2094.353250961984
 20
1067.29689121402
 30
0.0
 10
2086.452174490685
 20
1072.992132715917
 30
0.0
 10
2080.218359284803
 20
1077.310095805979
 30
0.0
 10
2074.40756428551
 20
1081.185771175414
 30
0.0
 10
2069.646162389125
 20
1084.259019169493
 30
0.0
 10
2065.690857889511
 20
1086.749055435542
 30
0.0
 10
2062.065471207756
 20
1088.985789109726
 30
0.0
 10
2058.004278587735
 20
1091.436493727258
 30
0.0
 10
2049.055230957756
 20
1096.700734102072
 30
0.0
 10
2035.620842422779
 20
1104.090129076848
 30
0.0
 10
2017.814970804803
 20
1112.920888799453
 30
0.0
 10
2000.273074086817
 20
1120.788618958992
 30
0.0
 10
1982.612449606292
 20
1127.937818878362
 30
0.0
 10
1964.693146099741
 20
1134.454790064945
 30
0.0
 10
1945.000037548487
 20
1140.845066814444
 30
0.0
 10
1923.497347343695
 20
1146.941342369214
 30
0.0
 10
1900.176627611318
 20
1152.610115417525
 30
0.0
 10
1876.645966491793
 20
1157.483721008452
 30
0.0
 10
1852.948013371902
 20
1161.640869484389
 30
0.0
 10
1829.117269026667
 20
1165.159600126038
 30
0.0
 10
1800.624506162271
 20
1168.687278724445
 30
0.0
 10
1767.426320092585
 20
1171.924254738115
 30
0.0
 10
1729.513434852811
 20
1174.706267713085
 30
0.0
 10
1691.509913410424
 20
1176.92634579865
 30
0.0
 10
1653.439797271209
 20
1178.678178711888
 30
0.0
 10
1615.322782926799
 20
1179.991544339061
 30
0.0
 10
1586.534035969602
 20
1180.688933545391
 30
0.0
 10
1567.099335447997
 20
1181.048697768444
 30
0.0
 10
1557.128451261461
 20
1181.210369265588
 30
0.0
 10
1547.440011315773
 20
1181.346355553711
 30
0.0
 10
1538.200873621414
 20
1181.457489809828
 30
0.0
 10
1530.307094549002
 20
1181.538015357979
 30
0.0
 10
1523.134634808153
 20
1181.60100188023
 30
0.0
 10
1516.071967411918
 20
1181.654393083604
 30
0.0
 10
1507.675777314276
 20
1181.705736067323
 30
0.0
 10
1497.946069775347
 20
1181.74991144488
 30
0.0
 10
1486.882936954009
 20
1181.778665100152
 30
0.0
 10
1478.246671074518
 20
1181.79061637125
 30
0.0
 10
1473.298250934791
 20
1181.784476551511
 30
0.0
 10
1472.481913058323
 20
1181.783463669164
 30
0.0
  0
SPLINE
  5
11A
330
1F
100
AcDbEntity
  8
0
  6
Continuous
 62
     7
370
    15
100
AcDbSpline
210
0.0
220
0.0
230
1.0
 70
     8
 71
     3
 72
   115
 73
   111
 74
     0
 42
0.000000001
 43
0.00000001
 40
0.0
 40
0.0
 40
0.0
 40
0.0
 40
0.0050257978688739
 40
0.0097378222562302
 40
0.0139162170290275
 40
0.0175609720943637
 40
0.0206212048857492
 40
0.0232192812748655
 40
0.0257593225923448
 40
0.028325955369951
 40
0.0377094306799544
 40
0.0472530646896515
 40
0.0642952627308545
 40
0.0813375267545841
 40
0.1016259390189806
 40
0.1219142833731742
 40
0.1422022359067482
 40
0.155788441646952
 40
0.1693747908300262
 40
0.1829612392186371
 40
0.1965478015092607
 40
0.2101346216346781
 40
0.2237217088204065
 40
0.2373091172239767
 40
0.2508968997209573
 40
0.2611914309768894
 40
0.2714860137812993
 40
0.2817805906378655
 40
0.2920752183892654
 40
0.3023699738528841
 40
0.3127550584589238
 40
0.3177809748603436
 40
0.3229033382691093
 40
0.3277357457899229
 40
0.3319974355201524
 40
0.3349455898112033
 40
0.3379649435041021
 40
0.3414558374219607
 40
0.3454182957554875
 40
0.3553947676613009
 40
0.3650763889411389
 40
0.3744214629412898
 40
0.3847372431220328
 40
0.3950360356137469
 40
0.4053345976528974
 40
0.4156330090880442
 40
0.4259312252681175
 40
0.4362292586287453
 40
0.446527209628751
 40
0.4568252167075809
 40
0.4671233573405089
 40
0.4774215460471821
 40
0.4877196751567667
 40
0.4980177009621223
 40
0.5083158055656488
 40
0.5186140782038832
 40
0.5289122545798735
 40
0.5392103425832063
 40
0.5495085116926854
 40
0.5598067120393095
 40
0.5701048521986616
 40
0.5804028965022767
 40
0.5907008813834891
 40
0.6009989139218134
 40
0.6112971031612029
 40
0.6215954701380504
 40
0.630246558334293
 40
0.6388978097260278
 40
0.6475490395131127
 40
0.6561997414763414
 40
0.6595983695265781
 40
0.6629998236895271
 40
0.6664749373899721
 40
0.6700541124144026
 40
0.6737373386720352
 40
0.6775246229653084
 40
0.6813207432707455
 40
0.6847037731786134
 40
0.6944734900901427
 40
0.7076826900703115
 40
0.7204418623389223
 40
0.7327952587502145
 40
0.7451485148465647
 40
0.7589837970014223
 40
0.7728190473344009
 40
0.7866540035813092
 40
0.8004885754852278
 40
0.8143228228496521
 40
0.8279097471927406
 40
0.8414964231130415
 40
0.8550829132793948
 40
0.8686693175402362
 40
0.8859607800208852
 40
0.9032518307440839
 40
0.9205430154578785
 40
0.9378343481322803
 40
0.9454425754818789
 40
0.9530507859652422
 40
0.9604792672235003
 40
0.9673421554573798
 40
0.9692455957483339
 40
0.9713272661363628
 40
0.9737995397561742
 40
0.9766624123779952
 40
0.9799158798724622
 40
0.98355993723147
 40
0.9883561485691424
 40
0.9936948750674132
 40
0.9995761076292209
 40
1.0
 40
1.0
 40
1.0
 40
1.0
 10
1472.481913354132
 20
1181.782881813877
 30
0.0
 10
1469.305792016141
 20
1181.780275247148
 30
0.0
 10
1463.151842760617
 20
1181.775224848352
 30
0.0
 10
1454.357496816343
 20
1181.751491366965
 30
0.0
 10
1446.436080868248
 20
1181.720058313005
 30
0.0
 10
1439.558674716175
 20
1181.68388578431
 30
0.0
 10
1433.68006102241
 20
1181.646433309962
 30
0.0
 10
1428.499654795625
 20
1181.608399442782
 30
0.0
 10
1423.631276729013
 20
1181.568279579249
 30
0.0
 10
1414.475701475698
 20
1181.484470443055
 30
0.0
 10
1400.895907868193
 20
1181.330547535633
 30
0.0
 10
1378.17418215971
 20
1180.988611440574
 30
0.0
 10
1350.622424157042
 20
1180.420170061188
 30
0.0
 10
1316.305033858416
 20
1179.437045814461
 30
0.0
 10
1279.9705318853
 20
1178.046131972422
 30
0.0
 10
1241.641777648444
 20
1176.123689714568
 30
0.0
 10
1207.594194547849
 20
1174.002386690105
 30
0.0
 10
1177.823089358981
 20
1171.71587990247
 30
0.0
 10
1152.314490786959
 20
1169.347466171506
 30
0.0
 10
1126.883108472961
 20
1166.483739403771
 30
0.0
 10
1101.552048132563
 20
1163.035356878071
 30
0.0
 10
1076.352689718587
 20
1158.904678404215
 30
0.0
 10
1051.324773670765
 20
1153.992618070649
 30
0.0
 10
1026.517840365723
 20
1148.201773245159
 30
0.0
 10
1003.972968065687
 20
1141.983554309646
 30
0.0
 10
983.6720837737377
 20
1135.525445885066
 30
0.0
 10
965.5664047914181
 20
1129.042829301312
 30
0.0
 10
947.72436885825
 20
1121.909253989656
 30
0.0
 10
930.1748103732137
 20
1114.113782688371
 30
0.0
 10
912.8984484300696
 20
1105.621919524531
 30
0.0
 10
898.860328338039
 20
1098.001314153251
 30
0.0
 10
887.8460606165755
 20
1091.567453407897
 30
0.0
 10
879.9101025587362
 20
1086.705360727396
 30
0.0
 10
872.4770621264989
 20
1081.933354493292
 30
0.0
 10
866.2604537409468
 20
1077.76785949246
 30
0.0
 10
861.0357993356519
 20
1074.145844120078
 30
0.0
 10
856.2490538729005
 20
1070.732476472625
 30
0.0
 10
851.0040633821535
 20
1066.87504804055
 30
0.0
 10
842.3835839454513
 20
1060.305669576478
 30
0.0
 10
830.9859666700572
 20
1051.020155313375
 30
0.0
 10
817.5395392459255
 20
1038.95005165002
 30
0.0
 10
804.5277917458129
 20
1026.078650145219
 30
0.0
 10
791.9237359358814
 20
1012.242121933399
 30
0.0
 10
779.7421432902439
 20
997.2127663796696
 30
0.0
 10
768.4404492256739
 20
981.4842627574844
 30
0.0
 10
758.040429989139
 20
965.1111402230085
 30
0.0
 10
748.5742590289503
 20
948.1505758564733
 30
0.0
 10
740.0619920894973
 20
930.6657285054498
 30
0.0
 10
732.52737608913
 20
912.7153088361543
 30
0.0
 10
725.9924719566164
 20
894.3580929173669
 30
0.0
 10
720.47999338712
 20
875.6524614201246
 30
0.0
 10
716.0113253145922
 20
856.6576664331509
 30
0.0
 10
712.6075652091201
 20
837.4338036382001
 30
0.0
 10
710.2895143337578
 20
818.042171558844
 30
0.0
 10
709.0759951375773
 20
798.545815263754
 30
0.0
 10
708.9879197754158
 20
779.010101228087
 30
0.0
 10
710.0307785097735
 20
759.5032834063198
 30
0.0
 10
712.182709885048
 20
740.0915458982555
 30
0.0
 10
715.4250189663986
 20
720.8384299809057
 30
0.0
 10
719.7366153657741
 20
701.8056035167474
 30
0.0
 10
725.0960924068753
 20
683.0533356814597
 30
0.0
 10
731.4816602802211
 20
664.6408888125121
 30
0.0
 10
738.8709344703102
 20
646.6268260826323
 30
0.0
 10
747.2412063531926
 20
629.069633703378
 30
0.0
 10
756.568112676167
 20
612.02775930402
 30
0.0
 10
766.2824245225604
 20
596.4399679097095
 30
0.0
 10
776.1935675259939
 20
582.2540781705949
 30
0.0
 10
786.1310618501418
 20
569.3956474849791
 30
0.0
 10
796.6710264603817
 20
557.0586106305551
 30
0.0
 10
805.5224807589486
 20
547.6407720294293
 30
0.0
 10
812.3395833373947
 20
540.8317487316676
 30
0.0
 10
816.9500777602545
 20
536.385981896369
 30
0.0
 10
821.7179285162947
 20
531.9468829264706
 30
0.0
 10
826.6919970883549
 20
527.4773108625672
 30
0.0
 10
831.89007819855
 20
522.9719824596533
 30
0.0
 10
837.2703703530457
 20
518.4765413957246
 30
0.0
 10
842.5834721280456
 20
514.197502151716
 30
0.0
 10
850.9021472413082
 20
507.7249892188924
 30
0.0
 10
864.1378993559271
 20
498.0558248681562
 30
0.0
 10
882.7158492556485
 20
485.8770416759654
 30
0.0
 10
903.304554561645
 20
473.9138668282243
 30
0.0
 10
923.9914433744198
 20
463.2312889528136
 30
0.0
 10
945.7719430702033
 20
453.2433981263769
 30
0.0
 10
968.8779460119204
 20
443.9498788309474
 30
0.0
 10
993.3066256465546
 20
435.4732148719913
 30
0.0
 10
1018.137279104313
 20
428.1290049173372
 30
0.0
 10
1043.286415623259
 20
421.8221072561194
 30
0.0
 10
1068.53695790996
 20
416.4920334977472
 30
0.0
 10
1093.828803403894
 20
412.0227182473192
 30
0.0
 10
1119.115432705956
 20
408.3039125667684
 30
0.0
 10
1144.514157641452
 20
405.2107617040257
 30
0.0
 10
1172.315905733106
 20
402.4250098369138
 30
0.0
 10
1202.522924955559
 20
400.0141453910185
 30
0.0
 10
1235.126498123373
 20
397.9510626751656
 30
0.0
 10
1267.782918381627
 20
396.2639689789672
 30
0.0
 10
1294.377879379773
 20
395.1847685085643
 30
0.0
 10
1314.882898277124
 20
394.4968620221503
 30
0.0
 10
1329.171948408857
 20
394.0760162517592
 30
0.0
 10
1342.994955128721
 20
393.7216476534741
 30
0.0
 10
1353.219694062917
 20
393.4944949468256
 30
0.0
 10
1360.069571948996
 20
393.355874418353
 30
0.0
 10
1364.147269565429
 20
393.2769627960385
 30
0.0
 10
1368.831121684014
 20
393.1909687239389
 30
0.0
 10
1374.255359698552
 20
393.0975502686377
 30
0.0
 10
1380.420104571113
 20
392.9991763491385
 30
0.0
 10
1387.806527518027
 20
392.8916333587133
 30
0.0
 10
1396.510837103312
 20
392.7786589494755
 30
0.0
 10
1406.629358059115
 20
392.6683774499975
 30
0.0
 10
1413.985974152655
 20
392.5963811318881
 30
0.0
 10
1417.969955710752
 20
392.5681038793153
 30
0.0
 10
1418.23779804629
 20
392.5662028049099
 30
0.0
  0
SPLINE
  5
11B
330
1F
100
AcDbEntity
  8
0
  6
Continuous
 62
     7
370
    15
100
AcDbSpline
210
0.0
220
0.0
230
1.0
 70
     8
 71
     3
 72
    17
 73
    13
 74
     0
 42
0.000000001
 43
0.00000001
 40
-0.0018074087184312
 40
-0.0018074087184312
 40
-0.0018074087184312
 40
-0.0018074087184312
 40
24.98112683085999
 40
49.96225366172
 40
99.92450732342999
 40
149.8867609851
 40
199.8490146469
 40
249.8112683086
 40
299.7735219703
 40
349.735775632
 40
399.6980292937
 40
449.6594474059015
 40
449.6594474059015
 40
449.6594474059015
 40
449.6594474059015
 10
983.4292033203001
 20
790.0324264595189
 30
0.0
 10
983.4981211121373
 20
796.6342229595236
 30
0.0
 10
984.1562857107142
 20
809.659762463873
 30
0.0
 10
987.5643283860776
 20
835.8547721817748
 30
0.0
 10
995.6102850617121
 20
867.6398607529236
 30
0.0
 10
1011.348519263002
 20
904.2169307255972
 30
0.0
 10
1032.413977954808
 20
937.463920011385
 30
0.0
 10
1058.594129827256
 20
967.2006267546553
 30
0.0
 10
1088.926640485061
 20
992.3233551893336
 30
0.0
 10
1123.183947053123
 20
1012.594031589386
 30
0.0
 10
1159.89817169697
 20
1027.070983499967
 30
0.0
 10
1185.39945800079
 20
1032.808883024412
 30
0.0
 10
1198.645855718117
 20
1034.697452179372
 30
0.0
  0
SPLINE
  5
11C
330
1F
100
AcDbEntity
  8
0
  6
Continuous
 62
     7
370
    15
100
AcDbSpline
210
0.0
220
0.0
230
1.0
 70
     8
 71
     3
 72
     8
 73
     4
 74
     0
 42
0.000000001
 43
0.00000001
 40
0.0
 40
0.0
 40
0.0
 40
0.0
 40
1.0
 40
1.0
 40
1.0
 40
1.0
 10
1758.670753232889
 20
1032.831214933744
 30
0.0
 10
1761.882181993696
 20
1032.223712812141
 30
0.0
 10
1765.081572714011
 20
1031.553373755484
 30
0.0
 10
1768.26697537126
 20
1030.821569064225
 30
0.0
  0
SPLINE
  5
11D
330
1F
100
AcDbEntity
  8
0
  6
Continuous
 62
     7
370
    15
100
AcDbSpline
210
0.0
220
0.0
230
1.0
 70
     8
 71
     3
 72
     8
 73
     4
 74
     0
 42
0.000000001
 43
0.00000001
 40
0.0
 40
0.0
 40
0.0
 40
0.0
 40
1.0
 40
1.0
 40
1.0
 40
1.0
 10
1739.281688693211
 20
1035.721578793075
 30
0.0
 10
1745.779484040995
 20
1035.011319580236
 30
0.0
 10
1752.248199871942
 20
1034.046160000228
 30
0.0
 10
1758.670753233185
 20
1032.831214935312
 30
0.0
  0
SPLINE
  5
11E
330
1F
100
AcDbEntity
  8
0
  6
Continuous
 62
     7
370
    15
100
AcDbSpline
210
0.0
220
0.0
230
1.0
 70
     8
 71
     3
 72
    10
 73
     6
 74
     0
 42
0.000000001
 43
0.00000001
 40
0.0
 40
0.0
 40
0.0
 40
0.0
 40
0.5
 40
0.5
 40
1.0
 40
1.0
 40
1.0
 40
1.0
 10
1751.480193651228
 20
540.3079982174548
 30
0.0
 10
1748.212687636734
 20
539.7881156357668
 30
0.0
 10
1744.934970794015
 20
539.3353435635114
 30
0.0
 10
1738.364772362321
 20
538.5523145279963
 30
0.0
 10
1735.072350210875
 20
538.221999788534
 30
0.0
 10
1731.773944135298
 20
537.9623525594975
 30
0.0
  0
SPLINE
  5
11F
330
1F
100
AcDbEntity
  8
0
  6
Continuous
 62
     7
370
    15
100
AcDbSpline
210
0.0
220
0.0
230
1.0
 70
     8
 71
     3
 72
     8
 73
     4
 74
     0
 42
0.000000001
 43
0.00000001
 40
449.6594474086815
 40
449.6594474086815
 40
449.6594474086815
 40
449.6594474086815
 40
474.6413963885134
 40
474.6413963885134
 40
474.6413963885134
 40
474.6413963885134
 10
1198.645855718142
 20
1034.6974521792
 30
0.0
 10
1205.269418326611
 20
1035.641787690352
 30
0.0
 10
1211.493633851755
 20
1036.280250836766
 30
0.0
 10
1218.220818250162
 20
1036.709732157095
 30
0.0
  0
SPLINE
  5
120
330
1F
100
AcDbEntity
  8
0
  6
Continuous
 62
     7
370
    15
100
AcDbSpline
210
0.0
220
0.0
230
1.0
 70
     8
 71
     3
 72
    10
 73
     6
 74
     0
 42
0.000000001
 43
0.00000001
 40
2695.785107110441
 40
2695.785107110441
 40
2695.785107110441
 40
2695.785107110441
 40
2708.304898206
 40
2720.825284296
 40
2745.867054553344
 40
2745.867054553344
 40
2745.867054553344
 40
2745.867054553344
 10
1235.826130424053
 20
537.1725064246086
 30
0.0
 10
1232.569123594395
 20
537.1698745224121
 30
0.0
 10
1225.754928012236
 20
537.2423980116223
 30
0.0
 10
1212.56700521816
 20
537.9603102807974
 30
0.0
 10
1202.850619707797
 20
539.0412093152806
 30
0.0
 10
1196.198211567077
 20
540.0590176677872
 30
0.0
  0
SPLINE
  5
121
330
1F
100
AcDbEntity
  8
0
  6
Continuous
 62
     7
370
    15
100
AcDbSpline
210
0.0
220
0.0
230
1.0
 70
     8
 71
     3
 72
     9
 73
     5
 74
     0
 42
0.000000001
 43
0.00000001
 40
1122.778696282304
 40
1122.778696282304
 40
1122.778696282304
 40
1122.778696282304
 40
1128.99755892
 40
1135.216013974917
 40
1135.216013974917
 40
1135.216013974917
 40
1135.216013974917
 10
1729.480217062604
 20
1036.600154150951
 30
0.0
 10
1731.052358138917
 20
1036.49046190864
 30
0.0
 10
1734.417956759922
 20
1036.223030412905
 30
0.0
 10
1737.693338962285
 20
1035.895194291712
 30
0.0
 10
1739.28168829995
 20
1035.721575195332
 30
0.0
  0
SPLINE
  5
122
330
1F
100
AcDbEntity
  8
0
  6
Continuous
 62
     7
370
    15
100
AcDbSpline
210
0.0
220
0.0
230
1.0
 70
     8
 71
     3
 72
    10
 73
     6
 74
     0
 42
0.000000001
 43
0.00000001
 40
0.0
 40
0.0
 40
0.0
 40
0.0
 40
0.5
 40
0.5
 40
1.0
 40
1.0
 40
1.0
 40
1.0
 10
1422.02011450361
 20
536.1851876507374
 30
0.0
 10
1421.16456698254
 20
536.5130553377367
 30
0.0
 10
1420.280757554454
 20
536.7618588695888
 30
0.0
 10
1418.479047907317
 20
537.0950001456272
 30
0.0
 10
1417.57009009187
 20
537.1783515210974
 30
0.0
 10
1416.653869123158
 20
537.1783515018491
 30
0.0
  0
SPLINE
  5
123
330
1F
100
AcDbEntity
  8
0
  6
Continuous
 62
     7
370
    15
100
AcDbSpline
210
0.0
220
0.0
230
1.0
 70
     8
 71
     3
 72
    38
 73
    34
 74
     0
 42
0.000000001
 43
0.00000001
 40
0.0
 40
0.0
 40
0.0
 40
0.0
 40
0.0138915330738504
 40
0.0277830661477009
 40
0.0555661322954016
 40
0.0833491984431023
 40
0.0972407315169528
 40
0.1111322645908033
 40
0.1250237976646537
 40
0.1389153307385042
 40
0.1666983968862047
 40
0.1944814630339055
 40
0.2222645291816062
 40
0.2778306614770079
 40
0.3056137276247085
 40
0.3333967937724094
 40
0.3472883268462598
 40
0.3611798599201101
 40
0.3889629260678109
 40
0.4445290583632125
 40
0.5000951906586142
 40
0.5556613229540156
 40
0.6112274552494172
 40
0.639010521397118
 40
0.6667935875448188
 40
0.6945766536925195
 40
0.7223597198402203
 40
0.7501427859879211
 40
0.7779258521356218
 40
0.8057089182833226
 40
0.8334919844310235
 40
0.8612750505787242
 40
0.889058116726425
 40
0.889058116726425
 40
0.889058116726425
 40
0.889058116726425
 10
1423.422838544513
 20
432.5702435739751
 30
0.0
 10
1423.410985120694
 20
433.7260053686438
 30
0.0
 10
1423.38512549373
 20
436.0179282893033
 30
0.0
 10
1423.325929145384
 20
440.522068593211
 30
0.0
 10
1423.240040450839
 20
446.0003532205998
 30
0.0
 10
1423.143964191938
 20
451.2696025250606
 30
0.0
 10
1423.063603929284
 20
455.3560833226013
 30
0.0
 10
1423.006240236074
 20
458.3556106943224
 30
0.0
 10
1422.944915548833
 20
461.2888689084436
 30
0.0
 10
1422.874656586967
 20
465.1106271577842
 30
0.0
 10
1422.789508568258
 20
469.72234332347
 30
0.0
 10
1422.704422089434
 20
474.9855143026173
 30
0.0
 10
1422.611195363273
 20
481.6411257482547
 30
0.0
 10
1422.544452086667
 20
487.7526644535668
 30
0.0
 10
1422.496436509301
 20
493.333791747088
 30
0.0
 10
1422.467644656713
 20
496.6076072909574
 30
0.0
 10
1422.446412652491
 20
499.101421010064
 30
0.0
 10
1422.418997338939
 20
501.5144327415155
 30
0.0
 10
1422.374133832523
 20
505.5265205827846
 30
0.0
 10
1422.28382831498
 20
510.6900194411068
 30
0.0
 10
1422.156718227991
 20
516.0655239512515
 30
0.0
 10
1422.016835177904
 20
520.6984621806398
 30
0.0
 10
1421.912542062259
 20
523.9999746767767
 30
0.0
 10
1421.841413881242
 20
526.3371493589249
 30
0.0
 10
1421.796770496445
 20
527.9452879799724
 30
0.0
 10
1421.763379457827
 20
529.4159594772733
 30
0.0
 10
1421.743444008212
 20
530.7536847493691
 30
0.0
 10
1421.739167390426
 20
531.9629846948013
 30
0.0
 10
1421.752752847292
 20
533.0483802121114
 30
0.0
 10
1421.786403621636
 20
534.0143921998408
 30
0.0
 10
1421.840965558365
 20
534.8618604661748
 30
0.0
 10
1421.917284502389
 20
535.5916248192989
 30
0.0
 10
1421.98323236654
 20
536.0002249846985
 30
0.0
 10
1422.020114414801
 20
536.1851876845919
 30
0.0
  0
SPLINE
  5
124
330
1F
100
AcDbEntity
  8
0
  6
Continuous
 62
     7
370
    15
100
AcDbSpline
210
0.0
220
0.0
230
1.0
 70
     8
 71
     3
 72
    18
 73
    14
 74
     0
 42
0.000000001
 43
0.00000001
 40
474.6413963880943
 40
474.6413963880943
 40
474.6413963880943
 40
474.6413963880943
 40
487.1319732017
 40
499.6225366172
 40
549.5847902789002
 40
599.5470439406
 40
699.471551264
 40
749.6448887260001
 40
799.3960585875
 40
849.1472284488998
 40
898.8983983104
 40
998.4007380332
 40
1048.151910720791
 40
1048.151910720791
 40
1048.151910720791
 40
1048.151910720791
 10
1218.220818250171
 20
1036.709732156952
 30
0.0
 10
1221.58430408644
 20
1036.924466020475
 30
0.0
 10
1227.887796309568
 20
1037.211961598177
 30
0.0
 10
1247.834523392589
 20
1037.214538226263
 30
0.0
 10
1277.236186020492
 20
1037.212788628679
 30
0.0
 10
1329.872633381086
 20
1037.213583273655
 30
0.0
 10
1382.502024025016
 20
1037.213245080537
 30
0.0
 10
1435.011673517218
 20
1037.213300812065
 30
0.0
 10
1474.488775944915
 20
1037.213290130947
 30
0.0
 10
1513.584689268934
 20
1037.213291334411
 30
0.0
 10
1566.134605429697
 20
1037.213299118901
 30
0.0
 10
1618.2581554245
 20
1037.213241316184
 30
0.0
 10
1657.57945464803
 20
1037.213331239993
 30
0.0
 10
1670.707570548552
 20
1037.21324274369
 30
0.0
  0
SPLINE
  5
125
330
1F
100
AcDbEntity
  8
0
  6
Continuous
 62
     7
370
    15
100
AcDbSpline
210
0.0
220
0.0
230
1.0
 70
     8
 71
     3
 72
     9
 73
     5
 74
     0
 42
0.000000001
 43
0.00000001
 40
1110.341437548331
 40
1110.341437548331
 40
1110.341437548331
 40
1110.341437548331
 40
1116.559766454
 40
1122.7786962826
 40
1122.7786962826
 40
1122.7786962826
 40
1122.7786962826
 10
1719.698575189635
 20
1037.092776763003
 30
0.0
 10
1721.40217790661
 20
1037.040251553017
 30
0.0
 10
1724.505234096686
 20
1036.914219092019
 30
0.0
 10
1727.908061594013
 20
1036.709847398471
 30
0.0
 10
1729.48021706256
 20
1036.600154150324
 30
0.0
  0
SPLINE
  5
126
330
1F
100
AcDbEntity
  8
0
  6
Continuous
 62
     7
370
    15
100
AcDbSpline
210
0.0
220
0.0
230
1.0
 70
     8
 71
     3
 72
     9
 73
     5
 74
     0
 42
0.000000001
 43
0.00000001
 40
1097.903956562267
 40
1097.903956562267
 40
1097.903956562267
 40
1097.903956562267
 40
1104.121973989
 40
1110.341437536788
 40
1110.341437536788
 40
1110.341437536788
 40
1110.341437536788
 10
1709.851638258951
 20
1037.212755071967
 30
0.0
 10
1711.489971057181
 20
1037.212634253277
 30
0.0
 10
1715.00505901534
 20
1037.213564774841
 30
0.0
 10
1717.994595718183
 20
1037.145313001252
 30
0.0
 10
1719.698575189626
 20
1037.092776762701
 30
0.0
  0
LWPOLYLINE
  5
127
330
1F
100
AcDbEntity
  8
0
  6
Continuous
 62
     7
370
    15
100
AcDbPolyline
 90
        4
 70
   128
 43
0.0
 10
1315.3888626693
 20
537.1782897902
 10
1286.2871449201
 20
537.1773727932
 10
1261.0566376744
 20
537.1794131189
 10
1235.8261304241
 20
537.1725064244
  0
LWPOLYLINE
  5
128
330
1F
100
AcDbEntity
  8
0
  6
Continuous
 62
     7
370
    15
100
AcDbPolyline
 90
        4
 70
   128
 43
0.0
 10
1670.7075705486
 20
1037.2132427437
 10
1685.0814045679
 20
1037.2133023834
 10
1697.4665214115
 20
1037.2132817127
 10
1709.851638259
 20
1037.2127550719
  0
LWPOLYLINE
  5
129
330
1F
100
AcDbEntity
  8
0
  6
Continuous
 62
     7
370
    15
100
AcDbPolyline
 90
        3
 70
   128
 43
0.0
 10
1416.6538691232
 20
537.1783510837
 10
1372.3193076393
 20
537.1783629655
 10
1315.3888626693
 20
537.1782897899
  0
SPLINE
  5
12A
330
1F
100
AcDbEntity
  8
0
  6
Continuous
 62
     7
370
    15
100
AcDbSpline
210
0.0
220
0.0
230
1.0
 70
     8
 71
     3
 72
    30
 73
    26
 74
     0
 42
0.000000001
 43
0.00000001
 40
1338.667487079154
 40
1338.667487079154
 40
1338.667487079154
 40
1338.667487079154
 40
1353.861945969
 40
1369.056425018
 40
1399.445383115
 40
1460.22329931
 40
1521.001215505
 40
1581.7791317
 40
1642.557047895
 40
1703.33496409
 40
1764.112880285
 40
1824.89079648
 40
1885.668712674
 40
1916.246566734
 40
1946.446628869
 40
1976.646691005
 40
2006.846753141
 40
2067.246877411999
 40
2127.647001683
 40
2188.047125955
 40
2248.447250226
 40
2308.847374497
 40
2369.247498767999
 40
2429.64762304
 40
2490.047788193775
 40
2490.047788193775
 40
2490.047788193775
 40
2490.047788193775
 10
1703.070686495902
 20
552.178835568594
 30
0.0
 10
1706.236679883339
 20
552.1789437615895
 30
0.0
 10
1712.614407383684
 20
552.1399955900246
 30
0.0
 10
1725.288640366498
 20
552.3927097860341
 30
0.0
 10
1747.700781680355
 20
554.3012434982136
 30
0.0
 10
1778.682952126303
 20
560.7584707742803
 30
0.0
 10
1814.38051101038
 20
574.4039859017258
 30
0.0
 10
1847.66455915316
 20
593.8503849039419
 30
0.0
 10
1876.875461851967
 20
617.9434270296304
 30
0.0
 10
1902.282216860141
 20
646.9192724189387
 30
0.0
 10
1922.431972084407
 20
679.3407006417555
 30
0.0
 10
1937.130324286358
 20
714.5611391199998
 30
0.0
 10
1944.503256136812
 20
745.730315138964
 30
0.0
 10
1947.299500699261
 20
770.9209655497178
 30
0.0
 10
1947.855073113899
 20
790.0779558199229
 30
0.0
 10
1946.875127494657
 20
808.8719161956154
 30
0.0
 10
1943.550725945791
 20
833.8838983137778
 30
0.0
 10
1935.611308571049
 20
864.4757635392533
 30
0.0
 10
1920.404151800212
 20
899.0532269979594
 30
0.0
 10
1899.700553839474
 20
930.9869976100186
 30
0.0
 10
1874.138319020391
 20
959.1160315724046
 30
0.0
 10
1844.715784277491
 20
982.5989392279705
 30
0.0
 10
1811.609697242601
 20
1001.296745622443
 30
0.0
 10
1776.001322694743
 20
1014.39719970519
 30
0.0
 10
1751.376958368416
 20
1019.244909495874
 30
0.0
 10
1738.695619442761
 20
1020.689579714029
 30
0.0
  0
SPLINE
  5
12B
330
1F
100
AcDbEntity
  8
0
  6
Continuous
 62
     7
370
    15
100
AcDbSpline
210
0.0
220
0.0
230
1.0
 70
     8
 71
     3
 72
     8
 73
     4
 74
     0
 42
0.000000001
 43
0.00000001
 40
2490.047788193518
 40
2490.047788193518
 40
2490.047788193518
 40
2490.047788193518
 40
2520.247820825349
 40
2520.247820825349
 40
2520.247820825349
 40
2520.247820825349
 10
1738.695619442702
 20
1020.68957971351
 30
0.0
 10
1732.354961636259
 20
1021.411913539287
 30
0.0
 10
1726.354345929751
 20
1021.856808227342
 30
0.0
 10
1719.834007323368
 20
1022.07987395784
 30
0.0
  0
LWPOLYLINE
  5
12C
330
1F
100
AcDbEntity
  8
0
  6
Continuous
 62
     7
370
    15
100
AcDbPolyline
 90
        4
 70
   128
 43
0.0
 10
1703.0706864959
 20
552.178835569
 10
1640.6063439029
 20
552.1783287041
 10
1578.1420013286
 20
552.1784142414
 10
1473.5791264007
 20
552.1783552173
  0
LINE
  5
12D
330
1F
100
AcDbEntity
  8
0
  6
Continuous
 62
     7
370
    15
100
AcDbLine
 10
1473.579126171
 20
552.1783552173
 30
0.0
 11
1471.9072697169
 21
552.17835522
 31
0.0
  0
SPLINE
  5
12E
330
1F
100
AcDbEntity
  8
0
  6
Continuous
 62
     7
370
    15
100
AcDbSpline
210
0.0
220
0.0
230
1.0
 70
     8
 71
     3
 72
    17
 73
    13
 74
     0
 42
0.000000001
 43
0.00000001
 40
2745.867054555729
 40
2745.867054555729
 40
2745.867054555729
 40
2745.867054555729
 40
2795.94760084
 40
2846.029145202
 40
2896.110689564
 40
2946.192233927
 40
2996.273778289
 40
3046.355322651001
 40
3096.436867013
 40
3146.518411376
 40
3171.618828907
 40
3196.598148328856
 40
3196.598148328856
 40
3196.598148328856
 40
3196.598148328856
 10
1196.198211566993
 20
540.0590176672397
 30
0.0
 10
1182.894239544647
 20
542.0945039889032
 30
0.0
 10
1157.338759551472
 20
548.1070396028621
 30
0.0
 10
1120.18504171682
 20
563.3163479583907
 30
0.0
 10
1086.267941502899
 20
584.0107455112
 30
0.0
 10
1055.80609444842
 20
609.9753767735175
 30
0.0
 10
1029.944978724301
 20
640.3622937809137
 30
0.0
 10
1009.240152964733
 20
674.4003959453049
 30
0.0
 10
994.1551907958155
 20
711.3165053896548
 30
0.0
 10
986.6174829429776
 20
743.8356637303165
 30
0.0
 10
983.7479304122259
 20
770.0573292383607
 30
0.0
 10
983.3602958115854
 20
783.4315878803824
 30
0.0
 10
983.4292033201401
 20
790.0324264595203
 30
0.0
  0
SPLINE
  5
12F
330
1F
100
AcDbEntity
  8
0
  6
Continuous
 62
     7
370
    15
100
AcDbSpline
210
0.0
220
0.0
230
1.0
 70
     8
 71
     3
 72
    17
 73
    13
 74
     0
 42
0.000000001
 43
0.00000001
 40
1172.533744123546
 40
1172.533744123546
 40
1172.533744123546
 40
1172.533744123546
 40
1197.405417479
 40
1247.15658734
 40
1296.907757202
 40
1346.658927063
 40
1396.410096925
 40
1446.161266786
 40
1495.912436648
 40
1545.663606509
 40
1570.53919144
 40
1595.416223417244
 40
1595.416223417244
 40
1595.416223417244
 40
1595.416223417244
 10
1768.266974216954
 20
1030.821564039764
 30
0.0
 10
1774.593644589959
 20
1029.368090986404
 30
0.0
 10
1793.72597914051
 20
1024.176727936228
 30
0.0
 10
1824.059392552423
 20
1011.958810027155
 30
0.0
 10
1857.840989096423
 20
991.7842031711552
 30
0.0
 10
1888.028496487423
 20
966.6208453631552
 30
0.0
 10
1914.019666206423
 20
936.9598367171551
 30
0.0
 10
1935.044426604423
 20
903.4990644721552
 30
0.0
 10
1950.443843012423
 20
867.5655830161553
 30
0.0
 10
1958.533771768423
 20
835.4572246321552
 30
0.0
 10
1961.863380956443
 20
809.7423040979066
 30
0.0
 10
1962.528714576114
 20
796.5796409532622
 30
0.0
 10
1962.601033061814
 20
790.029726120646
 30
0.0
  0
SPLINE
  5
130
330
1F
100
AcDbEntity
  8
0
  6
Continuous
 62
     7
370
    15
100
AcDbSpline
210
0.0
220
0.0
230
1.0
 70
     8
 71
     3
 72
    17
 73
    13
 74
     0
 42
0.000000001
 43
0.00000001
 40
1595.416223416258
 40
1595.416223416258
 40
1595.416223416258
 40
1595.416223416258
 40
1620.290361301
 40
1645.407305719
 40
1695.399835067
 40
1745.392364415
 40
1795.384893763
 40
1845.377423112
 40
1895.36995246
 40
1945.362481808
 40
1995.355011156
 40
2045.347129593749
 40
2045.347129593749
 40
2045.347129593749
 40
2045.347129593749
 10
1962.60103306164
 20
790.0297261206441
 30
0.0
 10
1962.67334339504
 20
783.4805724005398
 30
0.0
 10
1962.300042451318
 20
770.3666894405176
 30
0.0
 10
1959.434223127423
 20
743.8964592511552
 30
0.0
 10
1952.009729787423
 20
711.8199089691551
 30
0.0
 10
1937.049216743423
 20
674.8968539061551
 30
0.0
 10
1916.436650856423
 20
640.8751501991552
 30
0.0
 10
1890.861337415423
 20
610.6622523661551
 30
0.0
 10
1860.774627758423
 20
584.7477203551551
 30
0.0
 10
1826.881531866423
 20
563.8649436941552
 30
0.0
 10
1790.35769124598
 20
548.6220333677418
 30
0.0
 10
1764.31204734021
 20
542.3496384542952
 30
0.0
 10
1751.48019302022
 20
540.3080021833977
 30
0.0
  0
SPLINE
  5
131
330
1F
100
AcDbEntity
  8
0
  6
Continuous
 62
     7
370
    15
100
AcDbSpline
210
0.0
220
0.0
230
1.0
 70
     8
 71
     3
 72
     9
 73
     5
 74
     0
 42
0.000000001
 43
0.00000001
 40
2070.343690252513
 40
2070.343690252513
 40
2070.343690252513
 40
2070.343690252513
 40
2082.841937515001
 40
2095.338194597915
 40
2095.338194597915
 40
2095.338194597915
 40
2095.338194597915
 10
1731.773943892862
 20
537.9623556392612
 30
0.0
 10
1728.544531235808
 20
537.7081395733552
 30
0.0
 10
1722.077958475101
 20
537.3151046809094
 30
0.0
 10
1715.214491206545
 20
537.1772139624201
 30
0.0
 10
1711.943871290888
 20
537.1779403060494
 30
0.0
  0
SPLINE
  5
132
330
1F
100
AcDbEntity
  8
0
  6
Continuous
 62
     7
370
    15
100
AcDbSpline
210
0.0
220
0.0
230
1.0
 70
     8
 71
     3
 72
    13
 73
     9
 74
     0
 42
0.000000001
 43
0.00000001
 40
2095.338194584153
 40
2095.338194584153
 40
2095.338194584153
 40
2095.338194584153
 40
2107.83820219
 40
2120.336334527
 40
2145.332599201
 40
2195.325128549001
 40
2295.310187245001
 40
2316.974689262555
 40
2316.974689262555
 40
2316.974689262555
 40
2316.974689262555
 10
1711.943871290885
 20
537.1779403011375
 30
0.0
 10
1708.67231744367
 20
537.1786880847815
 30
0.0
 10
1702.133753430301
 20
537.1781379391251
 30
0.0
 10
1688.999063219424
 20
537.1784711011551
 30
0.0
 10
1665.862814111424
 20
537.1782719191552
 30
0.0
 10
1619.578624263423
 20
537.1784158621554
 30
0.0
 10
1574.376927088841
 20
537.1783553501352
 30
0.0
 10
1542.256226605161
 20
537.178353149517
 30
0.0
 10
1536.534787102568
 20
537.1783533179306
 30
0.0
  0
LINE
  5
133
330
1F
100
AcDbEntity
  8
0
  6
Continuous
 62
     7
370
    15
100
AcDbLine
 10
1536.5347871026
 20
537.1783533179
 30
0.0
 11
1530.3900550724
 21
537.1783536807
 31
0.0
  0
SPLINE
  5
134
330
1F
100
AcDbEntity
  8
0
  6
Continuous
 62
     7
370
    15
100
AcDbSpline
210
0.0
220
0.0
230
1.0
 70
     8
 71
     3
 72
    11
 73
     7
 74
     0
 42
0.000000001
 43
0.00000001
 40
0.4182894294804486
 40
0.4182894294804486
 40
0.4182894294804486
 40
0.4182894294804486
 40
0.5637170705179756
 40
0.7091447115555025
 40
0.8545723525930294
 40
1.0
 40
1.0
 40
1.0
 40
1.0
 10
1522.072533149559
 20
535.3660775022772
 30
0.0
 10
1522.72313524681
 20
535.663667035776
 30
0.0
 10
1524.056286631941
 20
536.1890088842179
 30
0.0
 10
1526.128304280628
 20
536.7580723271221
 30
0.0
 10
1528.248058271169
 20
537.1018414681287
 30
0.0
 10
1529.676342916577
 20
537.1783536038033
 30
0.0
 10
1530.390055033906
 20
537.1783536237058
 30
0.0
  0
LINE
  5
135
330
1F
100
AcDbEntity
  8
0
  6
Continuous
 62
     7
370
    15
100
AcDbLine
 10
1522.0725329579
 20
535.3660779289
 30
0.0
 11
1511.0366675725
 21
530.3182424264
 31
0.0
  0
SPLINE
  5
136
330
1F
100
AcDbEntity
  8
0
  6
Continuous
 62
     7
370
    15
100
AcDbSpline
210
0.0
220
0.0
230
1.0
 70
     8
 71
     3
 72
     8
 73
     4
 74
     0
 42
0.000000001
 43
0.00000001
 40
0.5510007369482298
 40
0.5510007369482298
 40
0.5510007369482298
 40
0.5510007369482298
 40
1.0
 40
1.0
 40
1.0
 40
1.0
 10
1511.036652268024
 20
530.3182756893075
 30
0.0
 10
1508.039013186604
 20
528.9471605173692
 30
0.0
 10
1504.762459718472
 20
528.2336977063809
 30
0.0
 10
1501.466135682631
 20
528.2336655159626
 30
0.0
  0
LINE
  5
137
330
1F
100
AcDbEntity
  8
0
  6
Continuous
 62
     7
370
    15
100
AcDbLine
 10
1501.4661360481
 20
528.2336696763
 30
0.0
 11
1447.0267419399
 21
528.2336696763
 31
0.0
  0
SPLINE
  5
138
330
1F
100
AcDbEntity
  8
0
  6
Continuous
 62
     7
370
    15
100
AcDbSpline
210
0.0
220
0.0
230
1.0
 70
     8
 71
     3
 72
     8
 73
     4
 74
     0
 42
0.000000001
 43
0.00000001
 40
0.0
 40
0.0
 40
0.0
 40
0.0
 40
0.3194630105282781
 40
0.3194630105282781
 40
0.3194630105282781
 40
0.3194630105282781
 10
1438.794243001353
 20
529.7569152017561
 30
0.0
 10
1441.418990812874
 20
528.7510451890554
 30
0.0
 10
1444.215851529418
 20
528.2336641721583
 30
0.0
 10
1447.026741773409
 20
528.2336655159521
 30
0.0
  0
LINE
  5
139
330
1F
100
AcDbEntity
  8
0
  6
Continuous
 62
     7
370
    15
100
AcDbLine
 10
1438.7942432446
 20
529.7569167005
 30
0.0
 11
1422.0201147706
 21
536.1851884622
 31
0.0
  0
SPLINE
  5
13A
330
1F
100
AcDbEntity
  8
0
  6
Continuous
 62
     7
370
    15
100
AcDbSpline
210
0.0
220
0.0
230
1.0
 70
     8
 71
     3
 72
    10
 73
     6
 74
     0
 42
0.000000001
 43
0.00000001
 40
2520.247820825201
 40
2520.247820825201
 40
2520.247820825201
 40
2520.247820825201
 40
2527.79782498
 40
2535.347840514
 40
2550.447890880589
 40
2550.447890880589
 40
2550.447890880589
 40
2550.447890880589
 10
1719.834007323363
 20
1022.079873957696
 30
0.0
 10
1718.20392421752
 20
1022.135640342225
 30
0.0
 10
1715.331204966375
 20
1022.206806074046
 30
0.0
 10
1708.752595086271
 20
1022.218225216825
 30
0.0
 10
1704.237411441943
 20
1022.213409482724
 30
0.0
 10
1701.074145360585
 20
1022.213387902631
 30
0.0
  0
LWPOLYLINE
  5
13B
330
1F
100
AcDbEntity
  8
0
  6
Continuous
 62
     7
370
    15
100
AcDbPolyline
 90
        5
 70
   128
 43
0.0
 10
1701.0741453606
 20
1022.2133879029
 10
1637.9071305749
 20
1022.2132883277
 10
1511.5731010051
 20
1022.2132921263
 10
1379.107580751
 20
1022.213311802
 10
1246.6420604969
 20
1022.213549941
  0
SPLINE
  5
13C
330
1F
100
AcDbEntity
  8
0
  6
Continuous
 62
     7
370
    15
100
AcDbSpline
210
0.0
220
0.0
230
1.0
 70
     8
 71
     3
 72
    20
 73
    16
 74
     0
 42
0.000000001
 43
0.00000001
 40
3276.729951913252
 40
3276.729951913252
 40
3276.729951913252
 40
3276.729951913252
 40
3291.891754890001
 40
3307.053480397
 40
3337.376931412
 40
3398.02383344
 40
3458.670735469
 40
3519.317637498
 40
3579.964539527
 40
3640.611441556
 40
3701.258343584
 40
3761.905245613
 40
3822.552147642
 40
3852.875598657
 40
3883.201845470654
 40
3883.201845470654
 40
3883.201845470654
 40
3883.201845470654
 10
1246.6420604969
 20
1022.213549941306
 30
0.0
 10
1243.469241700134
 20
1022.213608018488
 30
0.0
 10
1237.298314485277
 20
1022.21918336093
 30
0.0
 10
1224.515484607539
 20
1022.195943365597
 30
0.0
 10
1202.434317807644
 20
1020.665006756659
 30
0.0
 10
1171.2280481445
 20
1014.759952203419
 30
0.0
 10
1135.573501918423
 20
1001.82906440521
 30
0.0
 10
1102.143788389509
 20
983.1770024018067
 30
0.0
 10
1072.479850910536
 20
959.6776260753571
 30
0.0
 10
1046.726849948799
 20
931.4975284650785
 30
0.0
 10
1025.914344023623
 20
899.5927958958829
 30
0.0
 10
1010.518991725283
 20
864.7941003470044
 30
0.0
 10
1002.535050902378
 20
834.1516467747609
 30
0.0
 10
999.1662313292102
 20
809.0570034199776
 30
0.0
 10
998.5043501546774
 20
796.3690284395782
 30
0.0
 10
998.4304925001774
 20
790.0300192406477
 30
0.0
  0
SPLINE
  5
13D
330
1F
100
AcDbEntity
  8
0
  6
Continuous
 62
     7
370
    15
100
AcDbSpline
210
0.0
220
0.0
230
1.0
 70
     8
 71
     3
 72
    18
 73
    14
 74
     0
 42
0.000000001
 43
0.00000001
 40
0.0027957991557665
 40
0.0027957991557665
 40
0.0027957991557665
 40
0.0027957991557665
 40
30.32345101441
 40
60.87499810940999
 40
121.7499962188
 40
182.6249943282
 40
243.4999924376
 40
304.374990547
 40
365.2499886565
 40
426.1249867659
 40
486.9999848753
 40
547.8749829847
 40
578.312615076228
 40
578.312615076228
 40
578.312615076228
 40
578.312615076228
 10
998.4304925005395
 20
790.0300192406434
 30
0.0
 10
998.3566487642355
 20
783.692178545327
 30
0.0
 10
998.7276331544801
 20
770.9756267510859
 30
0.0
 10
1001.544263957423
 20
745.5497802821552
 30
0.0
 10
1008.937903968423
 20
714.3678127791552
 30
0.0
 10
1023.876095998423
 20
678.7536006861552
 30
0.0
 10
1044.110440705423
 20
646.4469592871552
 30
0.0
 10
1069.594641848423
 20
617.4720612821552
 30
0.0
 10
1099.395325374423
 20
593.1242965201553
 30
0.0
 10
1132.495279610423
 20
574.0035897751552
 30
0.0
 10
1168.598070853423
 20
560.3567634101553
 30
0.0
 10
1199.90847605965
 20
554.0563354201483
 30
0.0
 10
1219.01494583457
 20
552.576357176745
 30
0.0
 10
1225.338104669041
 20
552.3408168086894
 30
0.0
  0
SPLINE
  5
13E
330
1F
100
AcDbEntity
  8
0
  6
Continuous
 62
     7
370
    15
100
AcDbSpline
210
0.0
220
0.0
230
1.0
 70
     8
 71
     3
 72
    16
 73
    12
 74
     0
 42
0.000000001
 43
0.00000001
 40
578.3126150765694
 40
578.3126150765694
 40
578.3126150765694
 40
578.3126150765694
 40
593.5311583841874
 40
623.9686574389871
 40
684.8436555483871
 40
806.5936517671872
 40
867.4686498765872
 40
928.3436479859872
 40
943.5623975133872
 40
951.1717722769873
 40
958.7810140035178
 40
958.7810140035178
 40
958.7810140035178
 40
958.7810140035178
 10
1464.684845746655
 20
552.1783552206273
 30
0.0
 10
1461.53484248118
 20
552.1783552205483
 30
0.0
 10
1452.082799668018
 20
552.1783516065337
 30
0.0
 10
1429.569172208423
 20
552.1783937641552
 30
0.0
 10
1385.108073839423
 20
552.1779214451552
 30
0.0
 10
1333.791651862423
 20
552.1809659841553
 30
0.0
 10
1282.843109441423
 20
552.1738882891552
 30
0.0
 10
1254.136490105423
 20
552.1899276421552
 30
0.0
 10
1236.540405772423
 20
552.1703151191552
 30
0.0
 10
1230.276329921055
 20
552.1886453764748
 30
0.0
 10
1226.918863356519
 20
552.2819328682252
 30
0.0
 10
1225.338104669041
 20
552.3408168087074
 30
0.0
  0
LINE
  5
13F
330
1F
100
AcDbEntity
  8
0
  6
Continuous
 62
     7
370
    15
100
AcDbLine
 10
1471.9072680437
 20
552.1760859917
 30
0.0
 11
1464.6848459898
 21
552.1806246195
 31
0.0
  0
SPLINE
  5
140
330
1F
100
AcDbEntity
  8
0
  6
Continuous
 62
     7
370
    15
100
AcDbSpline
210
0.0
220
0.0
230
1.0
 70
     8
 71
     3
 72
    20
 73
    16
 74
     0
 42
0.000000001
 43
0.00000001
 40
0.0
 40
0.0
 40
0.0
 40
0.0
 40
0.1250000000000002
 40
0.1250000000000002
 40
0.2500000000000003
 40
0.2500000000000003
 40
0.5000000000000007
 40
0.5000000000000007
 40
0.750000000000001
 40
0.750000000000001
 40
0.8125000000000013
 40
0.8125000000000013
 40
0.875000000000001
 40
0.875000000000001
 40
1.0
 40
1.0
 40
1.0
 40
1.0
 10
1443.408381011216
 20
428.1229500609113
 30
0.0
 10
1443.377234344015
 20
426.9850672743746
 30
0.0
 10
1443.372537927771
 20
425.8404114577631
 30
0.0
 10
1443.351318684314
 20
423.5386594728226
 30
0.0
 10
1443.335020066446
 20
422.3815629244289
 30
0.0
 10
1443.285325601963
 20
418.8929712923745
 30
0.0
 10
1443.253617901162
 20
416.5441943014232
 30
0.0
 10
1443.186032348109
 20
411.8079501421193
 30
0.0
 10
1443.149188329404
 20
409.4204203592715
 30
0.0
 10
1443.097681762605
 20
406.4161498359643
 30
0.0
 10
1443.086981252766
 20
405.8143022284264
 30
0.0
 10
1443.065866796386
 20
404.608723729027
 30
0.0
 10
1443.051850639509
 20
404.0049982324749
 30
0.0
 10
1443.031582120021
 20
402.1911224626485
 30
0.0
 10
1443.062156491256
 20
400.9782500044614
 30
0.0
 10
1443.0709307385
 20
399.7622750090106
 30
0.0
  0
SPLINE
  5
141
330
1F
100
AcDbEntity
  8
0
  6
Continuous
 62
     7
370
    15
100
AcDbSpline
210
0.0
220
0.0
230
1.0
 70
     8
 71
     3
 72
    38
 73
    34
 74
     0
 42
0.000000001
 43
0.00000001
 40
0.0
 40
0.0
 40
0.0
 40
0.0
 40
0.0044909859925564
 40
0.0223663419783264
 40
0.0402060770737326
 40
0.0757235402208749
 40
0.1457364749907422
 40
0.1800928635406244
 40
0.2141103272131527
 40
0.2503900317885706
 40
0.2816426043631721
 40
0.3167299584113817
 40
0.3493462840378225
 40
0.385057221608483
 40
0.418205211244997
 40
0.491005213035477
 40
0.5612178845875567
 40
0.5978032240837359
 40
0.6345935495774149
 40
0.6715243254247579
 40
0.70853140948527
 40
0.7455511247487974
 40
0.782522544291441
 40
0.8206417948687045
 40
0.8560811148526375
 40
0.8934289963637359
 40
0.9287305453130088
 40
0.941091514161152
 40
0.9532601614278715
 40
0.9652357966744765
 40
0.9770178832273813
 40
0.9886060327718307
 40
1.0
 40
1.0
 40
1.0
 40
1.0
 10
1443.408381011219
 20
428.1229500611377
 30
0.0
 10
1443.412621057071
 20
428.4499907441727
 30
0.0
 10
1443.433737648325
 20
430.0787430426012
 30
0.0
 10
1443.47174502334
 20
432.978441832798
 30
0.0
 10
1443.534721218729
 20
438.0397314441087
 30
0.0
 10
1443.635258121787
 20
446.5852178136622
 30
0.0
 10
1443.735214928862
 20
455.7010001120585
 30
0.0
 10
1443.831957708486
 20
463.9596610907618
 30
0.0
 10
1443.906581322494
 20
469.8288181276934
 30
0.0
 10
1443.983447537496
 20
475.1492588204024
 30
0.0
 10
1444.067857134668
 20
480.1708342910754
 30
0.0
 10
1444.157906319493
 20
484.6890331559308
 30
0.0
 10
1444.266175853937
 20
489.0847506708599
 30
0.0
 10
1444.377632505129
 20
493.0976732716924
 30
0.0
 10
1444.524034761251
 20
498.3161943104858
 30
0.0
 10
1444.693766680397
 20
504.1486449324022
 30
0.0
 10
1444.848713374626
 20
509.2780885758825
 30
0.0
 10
1444.961950602026
 20
512.9228869758487
 30
0.0
 10
1445.042379434489
 20
515.4877624708291
 30
0.0
 10
1445.121442706503
 20
517.8296298317625
 30
0.0
 10
1445.207144492422
 20
519.9449148502349
 30
0.0
 10
1445.306717481591
 20
521.830151766903
 30
0.0
 10
1445.428845215547
 20
523.5003250539604
 30
0.0
 10
1445.579031266671
 20
524.910398338892
 30
0.0
 10
1445.766464325843
 20
526.0885847483219
 30
0.0
 10
1445.99343283964
 20
527.0033118449226
 30
0.0
 10
1446.212919777608
 20
527.5336706211735
 30
0.0
 10
1446.389965236618
 20
527.8164592349528
 30
0.0
 10
1446.505436778908
 20
527.960123649909
 30
0.0
 10
1446.626591678957
 20
528.0733173932438
 30
0.0
 10
1446.753644756297
 20
528.1562715539022
 30
0.0
 10
1446.885814155602
 20
528.2124734742023
 30
0.0
 10
1446.98003125633
 20
528.2266414049686
 30
0.0
 10
1447.026741773409
 20
528.2336655159521
 30
0.0
  0
SPLINE
  5
142
330
1F
100
AcDbEntity
  8
0
  6
Continuous
 62
     7
370
    15
100
AcDbSpline
210
0.0
220
0.0
230
1.0
 70
     8
 71
     3
 72
    66
 73
    62
 74
     0
 42
0.000000001
 43
0.00000001
 40
0.0
 40
0.0
 40
0.0
 40
0.0
 40
0.0134208384746036
 40
0.026841676949207
 40
0.0402625154238105
 40
0.0536833538984141
 40
0.0671041923730175
 40
0.080525030847621
 40
0.0872354500849227
 40
0.0939458693222245
 40
0.1006562885595262
 40
0.107366707796828
 40
0.107366707796828
 40
0.118196421448862
 40
0.1290261351008959
 40
0.1398558487529296
 40
0.1506855624049637
 40
0.161515276056998
 40
0.1723449897090317
 40
0.1831747033610658
 40
0.1940044170130999
 40
0.2156638443171677
 40
0.2373232716212357
 40
0.2589826989253037
 40
0.2806421262293712
 40
0.3023015535334395
 40
0.3239609808375075
 40
0.3672798354456432
 40
0.410598690053779
 40
0.453917544661915
 40
0.497236399270051
 40
0.5405552538781868
 40
0.5838741084863226
 40
0.6271929630944586
 40
0.6488523903985266
 40
0.6705118177025945
 40
0.6921712450066625
 40
0.7138306723107304
 40
0.7354900996147983
 40
0.7571495269188662
 40
0.7679792405709003
 40
0.7788089542229342
 40
0.7896386678749682
 40
0.8004683815270022
 40
0.8004683815270022
 40
0.8129391076815645
 40
0.8254098338361269
 40
0.8378805599906892
 40
0.8503512861452516
 40
0.8628220122998139
 40
0.8752927384543764
 40
0.8877634646089387
 40
0.9002341907635011
 40
0.9127049169180634
 40
0.9251756430726258
 40
0.9376463692271881
 40
0.9501170953817506
 40
0.962587821536313
 40
0.9750585476908753
 40
0.9875292738454376
 40
1.0
 40
1.0
 40
1.0
 40
1.0
 10
1501.466135682631
 20
528.2336655159626
 30
0.0
 10
1501.541974858734
 20
528.2225431120098
 30
0.0
 10
1501.693924911139
 20
528.2010585189671
 30
0.0
 10
1501.902340551257
 20
528.1118552401556
 30
0.0
 10
1502.09548219359
 20
527.9760490712031
 30
0.0
 10
1502.275145535639
 20
527.7973025344171
 30
0.0
 10
1502.440593701352
 20
527.5719908162981
 30
0.0
 10
1502.569321738451
 20
527.3538333974021
 30
0.0
 10
1502.664353221233
 20
527.149878114201
 30
0.0
 10
1502.732605752617
 20
526.9857873549784
 30
0.0
 10
1502.798791596043
 20
526.8141626761542
 30
0.0
 10
1502.84217396152
 20
526.6971171953508
 30
0.0
 10
1502.896881421425
 20
526.5362074510969
 30
0.0
 10
1502.962873340195
 20
526.3311755348947
 30
0.0
 10
1503.053695826253
 20
525.9896322687248
 30
0.0
 10
1503.138928516742
 20
525.6234025265811
 30
0.0
 10
1503.218571684096
 20
525.2313665726286
 30
0.0
 10
1503.292963278835
 20
524.813331251487
 30
0.0
 10
1503.36239502466
 20
524.3694358082233
 30
0.0
 10
1503.427158645269
 20
523.8998194879052
 30
0.0
 10
1503.507711030598
 20
523.2396836232818
 30
0.0
 10
1503.598325167237
 20
522.3513880943929
 30
0.0
 10
1503.693304931944
 20
521.1849553752572
 30
0.0
 10
1503.776892450166
 20
519.9185676041598
 30
0.0
 10
1503.851425880675
 20
518.5522665157526
 30
0.0
 10
1503.919243382243
 20
517.0860938446882
 30
0.0
 10
1504.003648173076
 20
514.99717740948
 30
0.0
 10
1504.103374441748
 20
512.1331375454043
 30
0.0
 10
1504.233508158613
 20
508.2808008471923
 30
0.0
 10
1504.392415110209
 20
503.9983100837306
 30
0.0
 10
1504.563755068417
 20
499.2607916657242
 30
0.0
 10
1504.742975182197
 20
494.0425626015112
 30
0.0
 10
1504.922919276236
 20
488.2822290867279
 30
0.0
 10
1505.065459718475
 20
482.957859169584
 30
0.0
 10
1505.16971424774
 20
478.3554753145987
 30
0.0
 10
1505.242126849697
 20
474.7242976480052
 30
0.0
 10
1505.30939276985
 20
470.9114543964074
 30
0.0
 10
1505.373249440569
 20
466.9105572674076
 30
0.0
 10
1505.43471183516
 20
462.7222720873443
 30
0.0
 10
1505.484333824619
 20
459.0775184812078
 30
0.0
 10
1505.523444572276
 20
456.0699091603379
 30
0.0
 10
1505.552550301049
 20
453.7681028924452
 30
0.0
 10
1505.581548602358
 20
451.4206852728658
 30
0.0
 10
1505.600866162152
 20
449.8240271772665
 30
0.0
 10
1505.621710048573
 20
448.0974871532965
 30
0.0
 10
1505.644081964515
 20
446.2395023266583
 30
0.0
 10
1505.678028013151
 20
443.3879126173328
 30
0.0
 10
1505.712373122372
 20
440.4953471097002
 30
0.0
 10
1505.747423979113
 20
437.5577253636399
 30
0.0
 10
1505.783029343506
 20
434.5797276766633
 30
0.0
 10
1505.819827755723
 20
431.5622315385869
 30
0.0
 10
1505.857351710514
 20
428.5087870505278
 30
0.0
 10
1505.896127528344
 20
425.4215990308161
 30
0.0
 10
1505.93668152968
 20
422.3028722977825
 30
0.0
 10
1505.978583121367
 20
419.1547522995986
 30
0.0
 10
1506.021401710252
 20
415.9793844844368
 30
0.0
 10
1506.06707503079
 20
412.778827297266
 30
0.0
 10
1506.117540817436
 20
409.5551391830554
 30
0.0
 10
1506.168672561628
 20
406.3103007969605
 30
0.0
 10
1506.216343754799
 20
403.0462927941371
 30
0.0
 10
1506.238803146254
 20
400.8586945906086
 30
0.0
 10
1506.249483384714
 20
399.7624579094781
 30
0.0
  0
SPLINE
  5
143
330
1F
100
AcDbEntity
  8
0
  6
Continuous
 62
     7
370
    15
100
AcDbSpline
210
0.0
220
0.0
230
1.0
 70
     8
 71
     3
 72
    20
 73
    16
 74
     0
 42
0.000000001
 43
0.00000001
 40
0.0
 40
0.0
 40
0.0
 40
0.0
 40
0.2499999999999999
 40
0.2499999999999999
 40
0.4999999999999999
 40
0.4999999999999999
 40
0.6249999999999999
 40
0.6249999999999999
 40
0.7499999999999998
 40
0.7499999999999998
 40
0.8749999999999998
 40
0.8749999999999998
 40
0.9374999999999999
 40
0.9374999999999999
 40
1.0
 40
1.0
 40
1.0
 40
1.0
 10
1523.013195831684
 20
452.3415466504923
 30
0.0
 10
1523.013225231128
 20
448.6519951232894
 30
0.0
 10
1523.013481684211
 20
444.8274237310694
 30
0.0
 10
1523.01357718518
 20
436.9227930830103
 30
0.0
 10
1523.014391411401
 20
432.8443252019248
 30
0.0
 10
1523.013254041216
 20
426.5357954412662
 30
0.0
 10
1523.014099729474
 20
424.403532111132
 30
0.0
 10
1523.014209108346
 20
420.0914599137545
 30
0.0
 10
1523.015121989685
 20
417.9098565986286
 30
0.0
 10
1523.012972801114
 20
413.496437407778
 30
0.0
 10
1523.015681371564
 20
411.2674081657603
 30
0.0
 10
1523.013989319415
 20
407.9102291804774
 30
0.0
 10
1523.014469941819
 20
406.7897484106642
 30
0.0
 10
1523.014769720914
 20
404.445067590411
 30
0.0
 10
1523.013989665282
 20
403.2205865848829
 30
0.0
 10
1523.014142057761
 20
401.9387652122845
 30
0.0
  0
SPLINE
  5
144
330
1F
100
AcDbEntity
  8
0
  6
Continuous
 62
     7
370
    15
100
AcDbSpline
210
0.0
220
0.0
230
1.0
 70
     8
 71
     3
 72
    40
 73
    36
 74
     0
 42
0.000000001
 43
0.00000001
 40
0.1995333054876619
 40
0.1995333054876619
 40
0.1995333054876619
 40
0.1995333054876619
 40
0.2103613321250318
 40
0.2211910457770658
 40
0.2320207594290998
 40
0.2428504730811338
 40
0.2645099003852017
 40
0.2861693276892696
 40
0.3078287549933375
 40
0.3294881822974055
 40
0.3511476096014734
 40
0.3728070369055414
 40
0.4161258915136773
 40
0.4594447461218132
 40
0.502763600729949
 40
0.546082455338085
 40
0.589401309946221
 40
0.6327201645543568
 40
0.6760390191624925
 40
0.6976984464665605
 40
0.7193578737706288
 40
0.7410173010746963
 40
0.7626767283787643
 40
0.7843361556828323
 40
0.8059955829869001
 40
0.8168252966389342
 40
0.8276550102909683
 40
0.838484723943002
 40
0.8493144375950363
 40
0.8601441512470704
 40
0.8709738648991041
 40
0.881803578551138
 40
0.892633292203172
 40
0.892633292203172
 40
0.8926335005706638
 40
0.8926335005706638
 40
0.8926335005706638
 40
0.8926335005706638
 10
1523.012220100792
 20
452.3412506499585
 30
0.0
 10
1523.012190889483
 20
453.1437310301808
 30
0.0
 10
1523.012130411777
 20
454.735912413619
 30
0.0
 10
1523.012034232939
 20
457.0849252280107
 30
0.0
 10
1523.011933281302
 20
459.3941206096515
 30
0.0
 10
1523.011793245817
 20
462.4189778534067
 30
0.0
 10
1523.011609746084
 20
466.0971356958129
 30
0.0
 10
1523.011381560422
 20
470.3413588783132
 30
0.0
 10
1523.011150931397
 20
474.4111115437
 30
0.0
 10
1523.010918892458
 20
478.3101235744045
 30
0.0
 10
1523.010686477051
 20
482.0421248528581
 30
0.0
 10
1523.010377465817
 20
486.8004187310367
 30
0.0
 10
1523.009995427848
 20
492.349408610289
 30
0.0
 10
1523.009532430432
 20
498.4009745292673
 30
0.0
 10
1523.00906726428
 20
503.8759973800837
 30
0.0
 10
1523.00861543071
 20
508.8071543439276
 30
0.0
 10
1523.008304417951
 20
513.229291677203
 30
0.0
 10
1523.008347026829
 20
517.1773833449062
 30
0.0
 10
1523.008286236329
 20
520.1023262481049
 30
0.0
 10
1523.00782012432
 20
522.2415485566675
 30
0.0
 10
1523.007202923514
 20
523.7501762871109
 30
0.0
 10
1523.006215343305
 20
525.1676367404227
 30
0.0
 10
1523.005164488528
 20
526.4958661588579
 30
0.0
 10
1523.004281697073
 20
527.7368130951846
 30
0.0
 10
1523.003989349004
 20
528.6998544635798
 30
0.0
 10
1523.004058687846
 20
529.4285858899784
 30
0.0
 10
1523.004448402688
 20
529.9545842378558
 30
0.0
 10
1523.004853424499
 20
530.4601478344917
 30
0.0
 10
1523.00601811837
 20
530.9457830297142
 30
0.0
 10
1523.006622241234
 20
531.4112384945488
 30
0.0
 10
1523.009274659143
 20
531.8577058105641
 30
0.0
 10
1523.008946841721
 20
532.283571517914
 30
0.0
 10
1523.015307588677
 20
532.557048902665
 30
0.0
 10
1522.999881521373
 20
532.683793026657
 30
0.0
 10
1522.999881224569
 20
532.6837954652079
 30
0.0
 10
1522.999880927759
 20
532.6837979037554
 30
0.0
  0
SPLINE
  5
145
330
1F
100
AcDbEntity
  8
0
  6
Continuous
 62
     7
370
    15
100
AcDbSpline
210
0.0
220
0.0
230
1.0
 70
     8
 71
     3
 72
    20
 73
    16
 74
     0
 42
0.000000001
 43
0.00000001
 40
0.1989378627832931
 40
0.1989378627832931
 40
0.1989378627832931
 40
0.1989378627832931
 40
0.2244402870275206
 40
0.2499427112014398
 40
0.2754451353753601
 40
0.3009475595492793
 40
0.3054671371645226
 40
0.3141461207205323
 40
0.4790468082847169
 40
0.5994672418156546
 40
0.6995995865737448
 40
0.799731931331835
 40
0.9129959860852024
 40
0.9899833863722067
 40
1.0
 40
1.0
 40
1.0
 40
1.0
 10
1536.534787102568
 20
537.1783533179308
 30
0.0
 10
1536.534787102568
 20
536.9724460290423
 30
0.0
 10
1536.534787102568
 20
536.5363458250476
 30
0.0
 10
1536.534787102568
 20
535.8051328321385
 30
0.0
 10
1536.534787102568
 20
534.9926513459154
 30
0.0
 10
1536.534787102568
 20
534.3409684669084
 30
0.0
 10
1536.534787102568
 20
533.8600381071324
 30
0.0
 10
1536.534787102568
 20
531.5923589789768
 30
0.0
 10
1536.534787102568
 20
526.6762133725626
 30
0.0
 10
1536.534787102568
 20
516.686325887073
 30
0.0
 10
1536.534787102568
 20
505.474479789561
 30
0.0
 10
1536.534787102568
 20
491.3095319298479
 30
0.0
 10
1536.534787102568
 20
474.7404534571405
 30
0.0
 10
1536.534787102568
 20
461.151362399378
 30
0.0
 10
1536.534789172875
 20
454.8106034511957
 30
0.0
 10
1536.534789411241
 20
454.074954147931
 30
0.0
  0
SPLINE
  5
146
330
1F
100
AcDbEntity
  8
0
  6
Continuous
 62
     7
370
    15
100
AcDbSpline
210
0.0
220
0.0
230
1.0
 70
     8
 71
     3
 72
    10
 73
     6
 74
     0
 42
0.000000001
 43
0.00000001
 40
0.1107605367517201
 40
0.1107605367517201
 40
0.1107605367517201
 40
0.1107605367517201
 40
0.1396622634103148
 40
0.183928759025194
 40
0.1989378627832936
 40
0.1989378627832936
 40
0.1989378627832936
 40
0.1989378627832936
 10
1536.534789411241
 20
454.0749541479311
 30
0.0
 10
1536.534790099017
 20
451.9523270935595
 30
0.0
 10
1536.534791840528
 20
446.4595709564022
 30
0.0
 10
1536.534788851681
 20
439.5036834197103
 30
0.0
 10
1536.534779719262
 20
434.5947221978029
 30
0.0
 10
1536.5347764654
 20
433.3429351056399
 30
0.0
  0
SPLINE
  5
147
330
1F
100
AcDbEntity
  8
0
  6
Continuous
 62
     7
370
    15
100
AcDbSpline
210
0.0
220
0.0
230
1.0
 70
     8
 71
     3
 72
    13
 73
     9
 74
     0
 42
0.000000001
 43
0.00000001
 40
0.0
 40
0.0
 40
0.0
 40
0.0
 40
0.0055305662651639
 40
0.0276529578817498
 40
0.055386031586863
 40
0.0859865394186935
 40
0.0983512166138317
 40
0.1107605367517201
 40
0.1107605367517201
 40
0.1107605367517201
 40
0.1107605367517201
 10
1536.5347764654
 20
433.3429351056399
 30
0.0
 10
1536.534775266415
 20
432.8816756210854
 30
0.0
 10
1536.534768632314
 20
430.5693968553691
 30
0.0
 10
1536.534747729737
 20
425.8937361216134
 30
0.0
 10
1536.534797467436
 20
418.8376792127718
 30
0.0
 10
1536.53473820361
 20
412.5377891032101
 30
0.0
 10
1536.534948462114
 20
407.4175472508662
 30
0.0
 10
1536.534621897199
 20
404.9685366665013
 30
0.0
 10
1536.534787216199
 20
403.6426246107395
 30
0.0
  0
LINE
  5
148
330
1F
100
AcDbEntity
  8
0
  6
Continuous
 62
     7
370
    15
100
AcDbLine
 10
1419.4284992394
 20
552.1939246943
 30
0.0
 11
1419.5013609508
 21
552.1939246943
 31
0.0
  0
LINE
  5
149
330
1F
100
AcDbEntity
  8
0
  6
Continuous
 62
     7
370
    15
100
AcDbLine
 10
1526.0341613324
 20
793.1037144882
 30
0.0
 11
1526.0341613324
 21
552.1783848273
 31
0.0
  0
LINE
  5
14A
330
1F
100
AcDbEntity
  8
0
  6
Continuous
 62
     7
370
    15
100
AcDbLine
 10
1419.4284992394
 20
552.1939246943
 30
0.0
 11
1419.42849924
 21
793.1037144145
 31
0.0
  0
ARC
  5
14B
330
1F
100
AcDbEntity
  8
0
  6
Continuous
 62
     7
370
    15
100
AcDbCircle
 10
1472.7313302869
 20
793.1037144239
 30
0.0
 40
53.30283104691421
100
AcDbArc
 50
0.0000000691
 51
180.0000000101
  0
ARC
  5
14C
330
1F
100
AcDbEntity
  8
0
  6
Continuous
 62
     7
370
    15
100
AcDbCircle
 10
1475.5475439212
 20
790.3287165532
 30
0.0
 40
25.00000096377221
100
AcDbArc
 50
179.9999999987
 51
0.0
  0
ARC
  5
14D
330
1F
100
AcDbEntity
  8
0
  6
Continuous
 62
     7
370
    15
100
AcDbCircle
 10
1475.5475439212
 20
790.3287165532
 30
0.0
 40
25.00000096377221
100
AcDbArc
 50
0.0
 51
179.9999999987
  0
LINE
  5
14E
330
1F
100
AcDbEntity
  8
0
  6
Continuous
 62
     7
370
    15
100
AcDbLine
 10
1712.5987044839
 20
553.2177917277
 30
0.0
 11
1712.6068998831
 21
553.1731006746
 31
0.0
  0
SPLINE
  5
14F
330
1F
100
AcDbEntity
  8
0
  6
Continuous
 62
     7
370
    15
100
AcDbSpline
210
0.0
220
0.0
230
1.0
 70
     8
 71
     3
 72
    28
 73
    24
 74
     0
 42
0.000000001
 43
0.00000001
 40
0.889058116726425
 40
0.889058116726425
 40
0.889058116726425
 40
0.889058116726425
 40
0.8925250505787242
 40
0.8942585175048738
 40
0.8959919844310235
 40
0.8994589182833227
 40
0.9029258521356219
 40
0.9063927859879212
 40
0.9098597198402204
 40
0.9133266536925196
 40
0.9167935875448188
 40
0.9237274552494171
 40
0.9306613229540156
 40
0.9375951906586141
 40
0.9445290583632125
 40
0.951462926067811
 40
0.9583967937724095
 40
0.9653306614770077
 40
0.9722645291816062
 40
0.9791983968862047
 40
0.9861322645908032
 40
0.9930661322954016
 40
1.0
 40
1.0
 40
1.0
 40
1.0
 10
1426.462542182825
 20
402.7835337563893
 30
0.0
 10
1426.43122999063
 20
403.1054386817008
 30
0.0
 10
1426.38277603217
 20
403.5226917237177
 30
0.0
 10
1426.317137989038
 20
404.033682937681
 30
0.0
 10
1426.251286440971
 20
404.535015654604
 30
0.0
 10
1426.170495701032
 20
405.2293820931796
 30
0.0
 10
1426.075801148002
 20
406.1620287059955
 30
0.0
 10
1425.982629420854
 20
407.1597671072719
 30
0.0
 10
1425.89041099811
 20
408.1982427628377
 30
0.0
 10
1425.798414514986
 20
409.2480731256189
 30
0.0
 10
1425.675180888168
 20
410.6268878241289
 30
0.0
 10
1425.518306801534
 20
412.2414201415777
 30
0.0
 10
1425.32807138865
 20
414.1012788430715
 30
0.0
 10
1425.138314874931
 20
415.9805808499073
 30
0.0
 10
1424.94871221966
 20
417.8657036179123
 30
0.0
 10
1424.75891674652
 20
419.7431270959216
 30
0.0
 10
1424.568907069406
 20
421.611688639451
 30
0.0
 10
1424.378655905287
 20
423.4702537652177
 30
0.0
 10
1424.188138913654
 20
425.317675019382
 30
0.0
 10
1423.997330421374
 20
427.1528095133859
 30
0.0
 10
1423.806205320371
 20
428.9745133463354
 30
0.0
 10
1423.614738246304
 20
430.7816427433459
 30
0.0
 10
1423.486848724352
 20
431.9759168548013
 30
0.0
 10
1423.422838544513
 20
432.5702435739751
 30
0.0
  0
LINE
  5
150
330
1F
100
AcDbEntity
  8
SKETCH
370
    15
100
AcDbLine
 10
983.4292033201
 20
790.0324264356
 30
0.0
 11
983.4292033201
 21
263.3570490228
 31
0.0
  0
LINE
  5
151
330
1F
100
AcDbEntity
  8
SKETCH
370
    15
100
AcDbLine
 10
983.4292033201
 20
263.3570490228
 30
0.0
 11
1962.6010340581
 21
263.3570490228
 31
0.0
  0
LINE
  5
152
330
1F
100
AcDbEntity
  8
SKETCH
370
    15
100
AcDbLine
 10
1962.6010340581
 20
263.3570490228
 30
0.0
 11
1962.6010340581
 21
790.0297261317
 31
0.0
  0
LINE
  5
153
330
1F
100
AcDbEntity
  8
SKETCH
370
    15
100
AcDbLine
 10
1670.7075708607
 20
1037.2132427443
 30
0.0
 11
2373.7348678919
 21
1037.2132427443
 31
0.0
  0
LINE
  5
154
330
1F
100
AcDbEntity
  8
SKETCH
370
    15
100
AcDbLine
 10
2373.7348678919
 20
1037.2132427443
 30
0.0
 11
2373.7348678919
 21
537.1779404682
 31
0.0
  0
LINE
  5
155
330
1F
100
AcDbEntity
  8
SKETCH
370
    15
100
AcDbLine
 10
2373.7348678919
 20
537.1779404682
 30
0.0
 11
1711.9438712909
 21
537.1779404682
 31
0.0
  0
MTEXT
  5
156
330
1F
100
AcDbEntity
  8
SKETCH
100
AcDbMText
 10
1444.5767987458
 20
300.4744902514
 30
0.0
 40
26.4583333333
 41
0.0
 71
     1
 72
     1
  1
980
  7
SLDTEXTSTYLE0
 73
     1
 44
1.0
  0
LWPOLYLINE
  5
157
330
1F
100
AcDbEntity
  8
0
  6
Continuous
 62
     7
370
    15
100
AcDbPolyline
 90
        3
 70
   128
 43
0.0
 10
2671.6068287811
 20
2273.0709266463
 10
2672.1047185992
 20
2273.0709806801
 10
2674.0783224553
 20
2273.0711949391
  0
SPLINE
  5
158
330
1F
100
AcDbEntity
  8
0
  6
Continuous
 62
     7
370
    15
100
AcDbSpline
210
0.0
220
0.0
230
1.0
 70
     8
 71
     3
 72
     9
 73
     5
 74
     0
 42
0.000000001
 43
0.00000001
 40
0.0
 40
0.0
 40
0.0
 40
0.0
 40
0.5636297879169301
 40
1.0
 40
1.0
 40
1.0
 40
1.0
 10
3447.261622302442
 20
2290.438092186313
 30
0.0
 10
3445.626049573358
 20
2292.183953117127
 30
0.0
 10
3442.724193134705
 20
2295.281484454613
 30
0.0
 10
3440.302732393159
 20
2297.878226607654
 30
0.0
 10
3439.24607905582
 20
2299.011367531701
 30
0.0
  0
SPLINE
  5
159
330
1F
100
AcDbEntity
  8
0
  6
Continuous
 62
     7
370
    15
100
AcDbSpline
210
0.0
220
0.0
230
1.0
 70
     8
 71
     3
 72
    12
 73
     8
 74
     0
 42
0.000000001
 43
0.00000001
 40
0.0
 40
0.0
 40
0.0
 40
0.0
 40
0.1054639863142107
 40
0.3704046745731172
 40
0.6077507954199883
 40
0.8175396095962406
 40
0.9999999999999999
 40
0.9999999999999999
 40
0.9999999999999999
 40
0.9999999999999999
 10
2670.503041839343
 20
2273.904301646384
 30
0.0
 10
2670.505194039531
 20
2273.869634153688
 30
0.0
 10
2670.512752875852
 20
2273.747876937798
 30
0.0
 10
2670.609966568633
 20
2273.538451670981
 30
0.0
 10
2670.8083467976
 20
2273.303219316921
 30
0.0
 10
2671.055178250432
 20
2273.096083648
 30
0.0
 10
2671.36636644113
 20
2273.055494502189
 30
0.0
 10
2671.511120128584
 20
2273.036613873996
 30
0.0
  0
LINE
  5
15A
330
1F
100
AcDbEntity
  8
0
  6
Continuous
 62
     7
370
    15
100
AcDbLine
 10
2712.6132109939
 20
2314.3120021382
 30
0.0
 11
2711.9516728725
 21
2313.8601514494
 31
0.0
  0
SPLINE
  5
15B
330
1F
100
AcDbEntity
  8
0
  6
Continuous
 62
     7
370
    15
100
AcDbSpline
210
0.0
220
0.0
230
1.0
 70
     8
 71
     3
 72
     9
 73
     5
 74
     0
 42
0.000000001
 43
0.00000001
 40
0.0
 40
0.0
 40
0.0
 40
0.0
 40
0.6067379349490336
 40
1.0
 40
1.0
 40
1.0
 40
1.0
 10
3432.131550502255
 20
2305.818253718146
 30
0.0
 10
3431.570487961926
 20
2306.303175069697
 30
0.0
 10
3430.645768230372
 20
2307.102402089501
 30
0.0
 10
3429.612511723552
 20
2307.938954440591
 30
0.0
 10
3429.206171135952
 20
2308.267938745703
 30
0.0
  0
SPLINE
  5
15C
330
1F
100
AcDbEntity
  8
0
  6
Continuous
 62
     7
370
    15
100
AcDbSpline
210
0.0
220
0.0
230
1.0
 70
     8
 71
     3
 72
    98
 73
    94
 74
     0
 42
0.000000001
 43
0.00000001
 40
0.0
 40
0.0
 40
0.0
 40
0.0
 40
0.0053081212550826
 40
0.01338957625835
 40
0.0205262367696283
 40
0.0267179831536759
 40
0.0320802848648715
 40
0.0489838341079913
 40
0.0666330007004472
 40
0.0795051565011735
 40
0.0923981367460437
 40
0.1052739535606088
 40
0.1172185666983671
 40
0.1278418335784561
 40
0.1373401579351503
 40
0.1480759883290887
 40
0.1600053641938856
 40
0.1723503919253916
 40
0.1801768715381435
 40
0.1880547385539123
 40
0.1959839473295391
 40
0.2037396447827504
 40
0.210700664052681
 40
0.2168309438252415
 40
0.2221304815418133
 40
0.2270287036058021
 40
0.2326944954055948
 40
0.2391939154997653
 40
0.2463887970554567
 40
0.2541442927514277
 40
0.2617625434205814
 40
0.2692003018905695
 40
0.2808648520706597
 40
0.2921091700730968
 40
0.3036647817882419
 40
0.3157629660463403
 40
0.3236456471410466
 40
0.3316694030221374
 40
0.3390780475334208
 40
0.3456727320041
 40
0.3514534784338562
 40
0.3592170264986704
 40
0.3677857305061431
 40
0.3772750954681581
 40
0.3876740555539621
 40
0.3989737248474066
 40
0.4104114560920349
 40
0.4254326707268917
 40
0.4398031676620369
 40
0.4539585017553747
 40
0.4681130433248638
 40
0.4822668916939158
 40
0.499957776462081
 40
0.517648057592829
 40
0.5353379392144938
 40
0.553027463857814
 40
0.5707165088244472
 40
0.5884055311073029
 40
0.6060946124963166
 40
0.6237838531317149
 40
0.6414734188829394
 40
0.6591633806606578
 40
0.6768538807931678
 40
0.6945451218073708
 40
0.707755940035339
 40
0.7209675099360341
 40
0.7341799420232605
 40
0.7476923873354664
 40
0.7617827976768011
 40
0.7764065905217321
 40
0.7886224326387378
 40
0.7996975139337905
 40
0.8096252504214924
 40
0.8149307821714726
 40
0.820010762365952
 40
0.8257546125564638
 40
0.8322836606637632
 40
0.843110931524946
 40
0.854504456991474
 40
0.8656411315752617
 40
0.876521165871766
 40
0.8871451918178579
 40
0.8975238110371063
 40
0.9076601419609638
 40
0.9175540658601863
 40
0.9294702382185379
 40
0.9406709160020374
 40
0.9517569148834703
 40
0.9639706737666667
 40
0.9773238715607352
 40
0.9883353293153596
 40
0.9991520177139778
 40
1.0
 40
1.0
 40
1.0
 40
1.0
 10
3426.375278264379
 20
2310.486030744059
 30
0.0
 10
3426.064379270481
 20
2310.722588434326
 30
0.0
 10
3425.28014590666
 20
2311.319298095072
 30
0.0
 10
3423.99314731929
 20
2312.258126015444
 30
0.0
 10
3422.599124005761
 20
2313.251023102095
 30
0.0
 10
3421.329850872294
 20
2314.131513316567
 30
0.0
 10
3419.330435969868
 20
2315.489074487445
 30
0.0
 10
3416.338908125353
 20
2317.439238850674
 30
0.0
 10
3412.421781690034
 20
2319.834570888829
 30
0.0
 10
3408.524586761604
 20
2322.087546713114
 30
0.0
 10
3404.812326096157
 20
2324.136570755296
 30
0.0
 10
3400.942802163988
 20
2326.177682393909
 30
0.0
 10
3397.078332314512
 20
2328.129432459046
 30
0.0
 10
3393.391860186009
 20
2329.919366898738
 30
0.0
 10
3389.678627542987
 20
2331.660403329856
 30
0.0
 10
3385.63423970088
 20
2333.492137156654
 30
0.0
 10
3381.019758248316
 20
2335.502796980724
 30
0.0
 10
3376.576624190957
 20
2337.359610122491
 30
0.0
 10
3372.537130073662
 20
2338.988043270146
 30
0.0
 10
3369.029479249366
 20
2340.362754147109
 30
0.0
 10
3365.426996060583
 20
2341.734819704323
 30
0.0
 10
3361.863457660796
 20
2343.053719376294
 30
0.0
 10
3358.494517546437
 20
2344.267235739117
 30
0.0
 10
3355.452278668788
 20
2345.336736025113
 30
0.0
 10
3352.695754823646
 20
2346.285227516863
 30
0.0
 10
3349.969346529625
 20
2347.205273370593
 30
0.0
 10
3346.988691425981
 20
2348.190833297501
 30
0.0
 10
3343.540277011857
 20
2349.304323154125
 30
0.0
 10
3339.635832352458
 20
2350.531271418826
 30
0.0
 10
3335.429655665915
 20
2351.813649777992
 30
0.0
 10
3331.073870416887
 20
2353.100020721526
 30
0.0
 10
3325.851770103845
 20
2354.593799048928
 30
0.0
 10
3319.747145829497
 20
2356.269268758995
 30
0.0
 10
3312.576648815382
 20
2358.13817319391
 30
0.0
 10
3305.076145475902
 20
2359.991234793655
 30
0.0
 10
3298.072137859286
 20
2361.623411860861
 30
0.0
 10
3291.682935704809
 20
2363.036394426289
 30
0.0
 10
3286.251333125356
 20
2364.18687172777
 30
0.0
 10
3281.018158680155
 20
2365.248720899595
 30
0.0
 10
3276.235967341406
 20
2366.180940035267
 30
0.0
 10
3271.295158122266
 20
2367.1096722769
 30
0.0
 10
3265.783584537685
 20
2368.104228966352
 30
0.0
 10
3259.229828844201
 20
2369.230012558452
 30
0.0
 10
3251.868256430119
 20
2370.427279766018
 30
0.0
 10
3243.639188848426
 20
2371.687034099283
 30
0.0
 10
3234.717037663425
 20
2372.963972386527
 30
0.0
 10
3224.346623924075
 20
2374.343465101715
 30
0.0
 10
3212.888559279269
 20
2375.737657952138
 30
0.0
 10
3200.39949513526
 20
2377.106082047884
 30
0.0
 10
3187.921582939731
 20
2378.332155555144
 30
0.0
 10
3175.290475039939
 20
2379.436864495442
 30
0.0
 10
3161.393774297755
 20
2380.507263226114
 30
0.0
 10
3146.193957169718
 20
2381.505176783625
 30
0.0
 10
3129.670862452985
 20
2382.384950048838
 30
0.0
 10
3112.952341801826
 20
2383.069517226518
 30
0.0
 10
3096.08400152997
 20
2383.553200102295
 30
0.0
 10
3079.114558743728
 20
2383.834203075539
 30
0.0
 10
3062.096780305633
 20
2383.909427207649
 30
0.0
 10
3045.08809934191
 20
2383.773435103781
 30
0.0
 10
3028.144803427922
 20
2383.43048396855
 30
0.0
 10
3011.318890442234
 20
2382.885694473077
 30
0.0
 10
2994.658530145145
 20
2382.141740062397
 30
0.0
 10
2978.208845548264
 20
2381.202764491481
 30
0.0
 10
2963.379389092396
 20
2380.168548905887
 30
0.0
 10
2950.131415412594
 20
2379.09420170997
 30
0.0
 10
2938.408396127774
 20
2378.026398024003
 30
0.0
 10
2926.793959423826
 20
2376.849116941439
 30
0.0
 10
2915.144551107074
 20
2375.543016837452
 30
0.0
 10
2903.345882941419
 20
2374.083937737785
 30
0.0
 10
2892.184275440556
 20
2372.562337442981
 30
0.0
 10
2882.10075280013
 20
2371.061070120298
 30
0.0
 10
2873.470542487098
 20
2369.677106976233
 30
0.0
 10
2866.787948914783
 20
2368.532751741123
 30
0.0
 10
2861.717332506969
 20
2367.622412412119
 30
0.0
 10
2857.740220387083
 20
2366.885096809992
 30
0.0
 10
2853.517834587925
 20
2366.075736058131
 30
0.0
 10
2847.984680693857
 20
2364.974091487464
 30
0.0
 10
2841.253931268841
 20
2363.56257926279
 30
0.0
 10
2833.678907079847
 20
2361.870959808769
 30
0.0
 10
2826.331424687004
 20
2360.127840879704
 30
0.0
 10
2819.381275036435
 20
2358.383087264194
 30
0.0
 10
2812.809196988718
 20
2356.643428025728
 30
0.0
 10
2806.596099467994
 20
2354.914814937255
 30
0.0
 10
2800.723096097357
 20
2353.202260328618
 30
0.0
 10
2794.751272345673
 20
2351.382138182746
 30
0.0
 10
2788.796981259341
 20
2349.480886056524
 30
0.0
 10
2782.856772475343
 20
2347.491982516449
 30
0.0
 10
2777.086758533226
 20
2345.472676114045
 30
0.0
 10
2771.216739069746
 20
2343.323626523877
 30
0.0
 10
2765.62386272601
 20
2341.178242203843
 30
0.0
 10
2760.509322417466
 20
2339.119863223825
 30
0.0
 10
2757.297988370014
 20
2337.794328603171
 30
0.0
 10
2755.737050552668
 20
2337.117510732497
 30
0.0
 10
2755.623575628731
 20
2337.068308352017
 30
0.0
  0
SPLINE
  5
15D
330
1F
100
AcDbEntity
  8
0
  6
Continuous
 62
     7
370
    15
100
AcDbSpline
210
0.0
220
0.0
230
1.0
 70
     8
 71
     3
 72
     9
 73
     5
 74
     0
 42
0.000000001
 43
0.00000001
 40
0.0
 40
0.0
 40
0.0
 40
0.0
 40
0.5018767420948195
 40
1.0
 40
1.0
 40
1.0
 40
1.0
 10
3315.076608158994
 20
1673.591420214164
 30
0.0
 10
3315.071481194028
 20
1673.856813185019
 30
0.0
 10
3315.061265608137
 20
1674.38561428018
 30
0.0
 10
3315.045490342872
 20
1674.919778018112
 30
0.0
 10
3315.037632316344
 20
1675.185857399505
 30
0.0
  0
SPLINE
  5
15E
330
1F
100
AcDbEntity
  8
0
  6
Continuous
 62
     7
370
    15
100
AcDbSpline
210
0.0
220
0.0
230
1.0
 70
     8
 71
     3
 72
    10
 73
     6
 74
     0
 42
0.000000001
 43
0.00000001
 40
0.0
 40
0.0
 40
0.0
 40
0.0
 40
0.0760175012359976
 40
0.8062293693459319
 40
1.0
 40
1.0
 40
1.0
 40
1.0
 10
3435.380264206897
 20
2302.832870951664
 30
0.0
 10
3435.348172224712
 20
2302.863880113494
 30
0.0
 10
3435.007809832668
 20
2303.192758287336
 30
0.0
 10
3434.564414416726
 20
2303.610477570327
 30
0.0
 10
3434.127498165586
 20
2304.007368765586
 30
0.0
 10
3434.035871389495
 20
2304.090601789273
 30
0.0
  0
LINE
  5
15F
330
1F
100
AcDbEntity
  8
0
  6
Continuous
 62
     7
370
    15
100
AcDbLine
 10
3315.0884419014
 20
1673.5914202142
 30
0.0
 11
3315.1079167147
 21
1674.0694029463
 31
0.0
  0
SPLINE
  5
160
330
1F
100
AcDbEntity
  8
0
  6
Continuous
 62
     7
370
    15
100
AcDbSpline
210
0.0
220
0.0
230
1.0
 70
     8
 71
     3
 72
    24
 73
    20
 74
     0
 42
0.000000001
 43
0.00000001
 40
0.0
 40
0.0
 40
0.0
 40
0.0
 40
0.0264825244242307
 40
0.0596896436165834
 40
0.0923206442451327
 40
0.1251789502663324
 40
0.1854109208589954
 40
0.2427569678400965
 40
0.2987443055575887
 40
0.3533454049074204
 40
0.406641031322627
 40
0.4587376545375915
 40
0.5169483288265858
 40
0.5753523189748352
 40
0.6419852884660732
 40
0.7182461013200981
 40
0.8042689408645293
 40
0.900145542518106
 40
1.0
 40
1.0
 40
1.0
 40
1.0
 10
2673.943645062874
 20
2273.021632092216
 30
0.0
 10
2674.413221933697
 20
2273.097344527391
 30
0.0
 10
2675.471613332531
 20
2273.267994734317
 30
0.0
 10
2677.146382246712
 20
2272.9651722061
 30
0.0
 10
2678.80056737314
 20
2271.663367728877
 30
0.0
 10
2680.560669599422
 20
2269.352644600111
 30
0.0
 10
2682.516341513739
 20
2266.195671048939
 30
0.0
 10
2684.748918346064
 20
2262.092659992846
 30
0.0
 10
2686.81345893357
 20
2258.079396200224
 30
0.0
 10
2688.793897163112
 20
2254.117518201845
 30
0.0
 10
2690.703064854658
 20
2250.229026798053
 30
0.0
 10
2692.634716776961
 20
2246.240801495035
 30
0.0
 10
2694.611861586598
 20
2242.129274616018
 30
0.0
 10
2696.736001859988
 20
2237.685283706543
 30
0.0
 10
2699.072348862968
 20
2232.760452197952
 30
0.0
 10
2701.707518699339
 20
2227.148342070444
 30
0.0
 10
2704.642348571494
 20
2220.806570318835
 30
0.0
 10
2707.801213594096
 20
2213.876965855063
 30
0.0
 10
2709.944828600865
 20
2209.053271104549
 30
0.0
 10
2711.038418522139
 20
2206.592407588568
 30
0.0
  0
SPLINE
  5
161
330
1F
100
AcDbEntity
  8
0
  6
Continuous
 62
     7
370
    15
100
AcDbSpline
210
0.0
220
0.0
230
1.0
 70
     8
 71
     3
 72
    41
 73
    37
 74
     0
 42
0.000000001
 43
0.00000001
 40
0.0
 40
0.0
 40
0.0
 40
0.0
 40
0.043851957739697
 40
0.0919687148307312
 40
0.1385221283763307
 40
0.1833651491095762
 40
0.2263373612858989
 40
0.2675816352164528
 40
0.3141316482034993
 40
0.3585957418804467
 40
0.4010837504225966
 40
0.4416521412093339
 40
0.4809219126073583
 40
0.5179640808772185
 40
0.5527430481162158
 40
0.5852319659299484
 40
0.6154120711492506
 40
0.6432718428328331
 40
0.6688060572632418
 40
0.689595861280115
 40
0.7085428436585471
 40
0.7256861652698431
 40
0.7420186269090465
 40
0.758667112975111
 40
0.7922813235969127
 40
0.8270764723473725
 40
0.8473574067561507
 40
0.8679977266421823
 40
0.8889875400575543
 40
0.9102990030285304
 40
0.9244370485187751
 40
0.938606160854119
 40
0.9530454833433322
 40
0.9679711777544522
 40
0.9835705223957265
 40
1.0
 40
1.0
 40
1.0
 40
1.0
 10
2711.02421446574
 20
2206.697771920748
 30
0.0
 10
2714.234892665479
 20
2199.33090583639
 30
0.0
 10
2720.968501904041
 20
2183.880712936674
 30
0.0
 10
2730.352480452383
 20
2160.281893009472
 30
0.0
 10
2739.272118749937
 20
2136.306380185573
 30
0.0
 10
2747.304294934005
 20
2113.008222607506
 30
0.0
 10
2754.516867381093
 20
2090.45977292815
 30
0.0
 10
2761.325499970301
 20
2067.454678270139
 30
0.0
 10
2767.687707641916
 20
2044.032774939548
 30
0.0
 10
2773.568121004323
 20
2020.245124803079
 30
0.0
 10
2778.704023803636
 20
1997.405136785268
 30
0.0
 10
2783.204330810411
 20
1975.399800370264
 30
0.0
 10
2787.135794038471
 20
1954.298621188444
 30
0.0
 10
2790.560804125659
 20
1934.18401196656
 30
0.0
 10
2793.518629221284
 20
1915.252355842457
 30
0.0
 10
2796.069908375995
 20
1897.531995330664
 30
0.0
 10
2798.267344921584
 20
1881.043949993623
 30
0.0
 10
2800.156599329408
 20
1865.803051048937
 30
0.0
 10
2801.7258454951
 20
1852.260520095218
 30
0.0
 10
2803.028431867036
 20
1840.335690394181
 30
0.0
 10
2804.107688809757
 20
1829.937729458401
 30
0.0
 10
2805.057227994534
 20
1820.350718847097
 30
0.0
 10
2805.926260238401
 20
1811.18104808325
 30
0.0
 10
2807.031857013902
 20
1798.992849477315
 30
0.0
 10
2808.351554428838
 20
1783.416888473145
 30
0.0
 10
2809.604735623861
 20
1767.165227366436
 30
0.0
 10
2810.595464733434
 20
1753.285187358108
 30
0.0
 10
2811.359282172256
 20
1741.93216308527
 30
0.0
 10
2812.089590946864
 20
1730.389048377949
 30
0.0
 10
2812.704413464989
 20
1720.029661043932
 30
0.0
 10
2813.21520661874
 20
1710.937595589254
 30
0.0
 10
2813.626353149777
 20
1703.290077455921
 30
0.0
 10
2814.011675278519
 20
1695.80903803626
 30
0.0
 10
2814.371582554696
 20
1688.510283288248
 30
0.0
 10
2814.710194783252
 20
1681.350038828378
 30
0.0
 10
2814.907234321689
 20
1676.909349265146
 30
0.0
 10
2815.008307556885
 20
1674.631456897849
 30
0.0
  0
LWPOLYLINE
  5
162
330
1F
100
AcDbEntity
  8
0
  6
Continuous
 62
     7
370
    15
100
AcDbPolyline
 90
        3
 70
   128
 43
0.0
 10
2814.9781319257
 20
1675.3547703533
 10
2815.0238597208
 20
1674.4682939653
 10
2815.0462895183
 20
1673.791988912
  0
LINE
  5
163
330
1F
100
AcDbEntity
  8
0
  6
Continuous
 62
     7
370
    15
100
AcDbLine
 10
2815.019698174
 20
1674.3848098071
 30
0.0
 11
2815.0366263124
 21
1673.8417838769
 31
0.0
  0
SPLINE
  5
164
330
1F
100
AcDbEntity
  8
0
  6
Continuous
 62
     7
370
    15
100
AcDbSpline
210
0.0
220
0.0
230
1.0
 70
     8
 71
     3
 72
    26
 73
    22
 74
     0
 42
0.000000001
 43
0.00000001
 40
0.0
 40
0.0
 40
0.0
 40
0.0
 40
0.0180146291576935
 40
0.0248114586101453
 40
0.0303749359136423
 40
0.0350919839304258
 40
0.0373308783594572
 40
0.0399416934140868
 40
0.0477264470732048
 40
0.0593436052990378
 40
0.0941380531679342
 40
0.1365225274157354
 40
0.1834371597742486
 40
0.2349092970120963
 40
0.300646970633582
 40
0.3802040263970144
 40
0.4744995440187039
 40
0.5835685493358501
 40
0.7074575404095892
 40
0.8462340341696933
 40
1.0
 40
1.0
 40
1.0
 40
1.0
 10
3456.071667807303
 20
2272.728353887547
 30
0.0
 10
3456.481750235572
 20
2272.752662757299
 30
0.0
 10
3457.04655471235
 20
2272.78614324199
 30
0.0
 10
3457.794659070019
 20
2272.830061485953
 30
0.0
 10
3458.22639781263
 20
2272.855334804885
 30
0.0
 10
3458.529591305377
 20
2272.872918754222
 30
0.0
 10
3458.725962751696
 20
2272.884534088153
 30
0.0
 10
3458.91989820333
 20
2272.894875805072
 30
0.0
 10
3459.108252428875
 20
2272.944597394267
 30
0.0
 10
3459.404514276819
 20
2273.085673779008
 30
0.0
 10
3459.619394450554
 20
2273.292272364989
 30
0.0
 10
3459.807302600454
 20
2273.559619429969
 30
0.0
 10
3459.886097310186
 20
2273.789891607545
 30
0.0
 10
3459.910950162975
 20
2273.96692618516
 30
0.0
 10
3459.910693186939
 20
2274.067474070474
 30
0.0
 10
3459.903293686822
 20
2274.184478703288
 30
0.0
 10
3459.884051910591
 20
2274.30617587652
 30
0.0
 10
3459.853241842328
 20
2274.444539444942
 30
0.0
 10
3459.807973585308
 20
2274.604859075671
 30
0.0
 10
3459.746598267513
 20
2274.794046528643
 30
0.0
 10
3459.692347753397
 20
2274.942601087561
 30
0.0
 10
3459.663832635586
 20
2275.020684232355
 30
0.0
  0
LINE
  5
165
330
1F
100
AcDbEntity
  8
0
  6
Continuous
 62
     7
370
    15
100
AcDbLine
 10
3459.414808163
 20
2274.9386985298
 30
0.0
 11
3459.5090217555
 21
2274.8287305579
 31
0.0
  0
SPLINE
  5
166
330
1F
100
AcDbEntity
  8
0
  6
Continuous
 62
     7
370
    15
100
AcDbSpline
210
0.0
220
0.0
230
1.0
 70
     8
 71
     3
 72
     9
 73
     5
 74
     0
 42
0.000000001
 43
0.00000001
 40
0.0
 40
0.0
 40
0.0
 40
0.0
 40
0.5205995577729287
 40
1.0
 40
1.0
 40
1.0
 40
1.0
 10
2701.935263900872
 20
2308.422835111413
 30
0.0
 10
2699.953639844288
 20
2306.738174924956
 30
0.0
 10
2696.147213144541
 20
2303.502174891332
 30
0.0
 10
2692.364159410115
 20
2300.289802189871
 30
0.0
 10
2690.550561776862
 20
2298.749789296193
 30
0.0
  0
SPLINE
  5
167
330
1F
100
AcDbEntity
  8
0
  6
Continuous
 62
     7
370
    15
100
AcDbSpline
210
0.0
220
0.0
230
1.0
 70
     8
 71
     3
 72
     9
 73
     5
 74
     0
 42
0.000000001
 43
0.00000001
 40
0.0
 40
0.0
 40
0.0
 40
0.0
 40
0.5002179488132589
 40
1.0
 40
1.0
 40
1.0
 40
1.0
 10
3447.665372281128
 20
2291.654086631315
 30
0.0
 10
3446.034091006216
 20
2293.379614965014
 30
0.0
 10
3442.772949980024
 20
2296.82916798044
 30
0.0
 10
3439.508295924502
 20
2300.282861711569
 30
0.0
 10
3437.876680424219
 20
2302.008955848683
 30
0.0
  0
SPLINE
  5
168
330
1F
100
AcDbEntity
  8
0
  6
Continuous
 62
     7
370
    15
100
AcDbSpline
210
0.0
220
0.0
230
1.0
 70
     8
 71
     3
 72
    19
 73
    15
 74
     0
 42
0.000000001
 43
0.00000001
 40
0.0
 40
0.0
 40
0.0
 40
0.0
 40
0.0708977380228247
 40
0.142794617609234
 40
0.2071330035562353
 40
0.2639128652454054
 40
0.3123214839566192
 40
0.3534453166721659
 40
0.391415562103161
 40
0.4297623412038502
 40
0.5697887439999564
 40
0.713016623692745
 40
0.9689215511875561
 40
1.0
 40
1.0
 40
1.0
 40
1.0
 10
3459.646004084841
 20
2275.050703427473
 30
0.0
 10
3459.621419427366
 20
2275.108238938092
 30
0.0
 10
3459.571903647862
 20
2275.224120790841
 30
0.0
 10
3459.483256051452
 20
2275.417170775317
 30
0.0
 10
3459.39010183332
 20
2275.612000998698
 30
0.0
 10
3459.298601763378
 20
2275.796555354256
 30
0.0
 10
3459.212391766657
 20
2275.965594648892
 30
0.0
 10
3459.131788825752
 20
2276.120005964205
 30
0.0
 10
3459.052985247463
 20
2276.268135252895
 30
0.0
 10
3458.899057525904
 20
2276.552522076306
 30
0.0
 10
3458.642235081193
 20
2277.011896902091
 30
0.0
 10
3458.109194414641
 20
2277.907964990589
 30
0.0
 10
3457.638440770618
 20
2278.682871468793
 30
0.0
 10
3457.181272360477
 20
2279.361348377934
 30
0.0
 10
3457.131763970075
 20
2279.434823051493
 30
0.0
  0
SPLINE
  5
169
330
1F
100
AcDbEntity
  8
0
  6
Continuous
 62
     7
370
    15
100
AcDbSpline
210
0.0
220
0.0
230
1.0
 70
     8
 71
     3
 72
    15
 73
    11
 74
     0
 42
0.000000001
 43
0.00000001
 40
0.0
 40
0.0
 40
0.0
 40
0.0
 40
0.1291331111971988
 40
0.3734261529627512
 40
0.6238304230922772
 40
0.6913590681397084
 40
0.7612455992661863
 40
0.8395100774694696
 40
0.9267589921065486
 40
1.0
 40
1.0
 40
1.0
 40
1.0
 10
2671.333102915702
 20
2275.948501970671
 30
0.0
 10
2671.251399129193
 20
2275.818225640522
 30
0.0
 10
2671.015128738155
 20
2275.441493535651
 30
0.0
 10
2670.826037896644
 20
2275.075508936559
 30
0.0
 10
2670.67307885847
 20
2274.763878789543
 30
0.0
 10
2670.601814147237
 20
2274.587365488553
 30
0.0
 10
2670.566607334845
 20
2274.493379326208
 30
0.0
 10
2670.521876608498
 20
2274.337371638096
 30
0.0
 10
2670.483960569814
 20
2274.152495663845
 30
0.0
 10
2670.489027056217
 20
2274.022451525972
 30
0.0
 10
2670.491339192486
 20
2273.963104723516
 30
0.0
  0
LINE
  5
16A
330
1F
100
AcDbEntity
  8
0
  6
Continuous
 62
     7
370
    15
100
AcDbLine
 10
3315.0788950807
 20
1673.9788369134
 30
0.0
 11
3315.0346671723
 21
1675.4112388306
 31
0.0
  0
SPLINE
  5
16B
330
1F
100
AcDbEntity
  8
0
  6
Continuous
 62
     7
370
    15
100
AcDbSpline
210
0.0
220
0.0
230
1.0
 70
     8
 71
     3
 72
    69
 73
    65
 74
     0
 42
0.000000001
 43
0.00000001
 40
0.0
 40
0.0
 40
0.0
 40
0.0
 40
0.0072899217748357
 40
0.0191468380927016
 40
0.029573396448582
 40
0.0385697241370441
 40
0.0461358415685475
 40
0.0523672065225131
 40
0.0666128763969679
 40
0.0812690606634837
 40
0.1077894168203651
 40
0.1346789746047934
 40
0.1545186359751417
 40
0.175050384652599
 40
0.1811836606305401
 40
0.1862018124931435
 40
0.1900968813286044
 40
0.1937649299127536
 40
0.1985522658319999
 40
0.2077425903989142
 40
0.2176588123465424
 40
0.2272837571029326
 40
0.2366173953164149
 40
0.2457266307156313
 40
0.2547519240221439
 40
0.2850249623337301
 40
0.3151748631824749
 40
0.3453285251035844
 40
0.3754860966395196
 40
0.3905681478297723
 40
0.4057271366381814
 40
0.4213190109648839
 40
0.437286629600951
 40
0.4529239395131776
 40
0.4678553583196978
 40
0.4811945117292198
 40
0.4948276266726087
 40
0.5181145818778616
 40
0.5410698946538612
 40
0.5635647249312519
 40
0.5861746416902736
 40
0.6092587047884628
 40
0.6325463514518407
 40
0.645596265563979
 40
0.6569211334195185
 40
0.6687849586247181
 40
0.6826891795532376
 40
0.6969405452304213
 40
0.7106169292893731
 40
0.7238939173274261
 40
0.7371574967236928
 40
0.7821720909545027
 40
0.82719003240153
 40
0.8722105203174833
 40
0.8920209630629966
 40
0.9116482283880336
 40
0.9296313448257041
 40
0.9355068699136234
 40
0.9428954890815906
 40
0.9520281918372366
 40
0.9629048361112306
 40
0.9755252198641002
 40
0.9898891824969059
 40
0.9999999999999999
 40
0.9999999999999999
 40
0.9999999999999999
 40
0.9999999999999999
 10
3065.837872320471
 20
2387.423735981788
 30
0.0
 10
3064.382906258681
 20
2387.425458316656
 30
0.0
 10
3060.561466128603
 20
2387.429981995769
 30
0.0
 10
3054.660316469574
 20
2387.392904036176
 30
0.0
 10
3048.423788430021
 20
2387.329082434794
 30
0.0
 10
3043.048695710141
 20
2387.249484763098
 30
0.0
 10
3038.514685840643
 20
2387.16612337873
 30
0.0
 10
3032.943355851756
 20
2387.046847206023
 30
0.0
 10
3025.97740110248
 20
2386.866800526413
 30
0.0
 10
3015.029194296487
 20
2386.514593975071
 30
0.0
 10
3001.666096192922
 20
2385.962731476453
 30
0.0
 10
2987.437956413629
 20
2385.205028892477
 30
0.0
 10
2974.523517899409
 20
2384.382395278283
 30
0.0
 10
2965.694416177544
 20
2383.73913186411
 30
0.0
 10
2959.730218966548
 20
2383.267904576017
 30
0.0
 10
2956.908066213956
 20
2383.037572099884
 30
0.0
 10
2954.55533870815
 20
2382.840617850157
 30
0.0
 10
2952.251685987083
 20
2382.643648212033
 30
0.0
 10
2948.97000227838
 20
2382.356447881813
 30
0.0
 10
2944.548401746427
 20
2381.954657439252
 30
0.0
 10
2939.269435916335
 20
2381.450469243618
 30
0.0
 10
2934.004558630529
 20
2380.922277081844
 30
0.0
 10
2928.926362970848
 20
2380.388714349027
 30
0.0
 10
2923.995562484175
 20
2379.847517559699
 30
0.0
 10
2915.375882765049
 20
2378.861101512283
 30
0.0
 10
2903.2310548055
 20
2377.344977256519
 30
0.0
 10
2887.888389325915
 20
2375.171457762618
 30
0.0
 10
2873.10638033855
 20
2372.809623576822
 30
0.0
 10
2861.27722986043
 20
2370.685206402869
 30
0.0
 10
2852.122703268453
 20
2368.892164613516
 30
0.0
 10
2845.341239111791
 20
2367.487993730077
 30
0.0
 10
2838.603820269935
 20
2366.014419335547
 30
0.0
 10
2831.982076699921
 20
2364.484942735874
 30
0.0
 10
2825.634565632793
 20
2362.940398108622
 30
0.0
 10
2819.811727897056
 20
2361.453583378791
 30
0.0
 10
2814.387017550594
 20
2360.00781873406
 30
0.0
 10
2808.04412761769
 20
2358.248314353009
 30
0.0
 10
2800.765828128342
 20
2356.119028663955
 30
0.0
 10
2792.796532579156
 20
2353.635676932614
 30
0.0
 10
2785.275930945471
 20
2351.149220450253
 30
0.0
 10
2778.100464718343
 20
2348.638881208587
 30
0.0
 10
2771.200178457193
 20
2346.089352959269
 30
0.0
 10
2765.562555483285
 20
2343.89079434668
 30
0.0
 10
2761.229763883785
 20
2342.129460105915
 30
0.0
 10
2758.030563847582
 20
2340.792799647772
 30
0.0
 10
2754.847639469258
 20
2339.428209233964
 30
0.0
 10
2751.52142814377
 20
2337.961455146765
 30
0.0
 10
2748.165399712375
 20
2336.436404687747
 30
0.0
 10
2744.97569381421
 20
2334.943994151854
 30
0.0
 10
2741.970575617289
 20
2333.497589110085
 30
0.0
 10
2736.810909808973
 20
2330.943787463705
 30
0.0
 10
2729.946819780917
 20
2327.324514819346
 30
0.0
 10
2722.097860204181
 20
2322.783494669455
 30
0.0
 10
2716.564640981461
 20
2319.265334458564
 30
0.0
 10
2712.738247447458
 20
2316.663250530322
 30
0.0
 10
2710.305743699828
 20
2314.937764991312
 30
0.0
 10
2708.579262822627
 20
2313.662703401308
 30
0.0
 10
2707.389092636265
 20
2312.761227119591
 30
0.0
 10
2706.555906203324
 20
2312.121068381695
 30
0.0
 10
2705.56649401768
 20
2311.347241214634
 30
0.0
 10
2704.429531697271
 20
2310.438995261806
 30
0.0
 10
2703.168538932806
 20
2309.405034987752
 30
0.0
 10
2701.982859355626
 20
2308.409060307129
 30
0.0
 10
2701.255522707728
 20
2307.772552007379
 30
0.0
 10
2700.955051444273
 20
2307.509602995283
 30
0.0
  0
SPLINE
  5
16C
330
1F
100
AcDbEntity
  8
0
  6
Continuous
 62
     7
370
    15
100
AcDbSpline
210
0.0
220
0.0
230
1.0
 70
     8
 71
     3
 72
    64
 73
    60
 74
     0
 42
0.000000001
 43
0.00000001
 40
0.0
 40
0.0
 40
0.0
 40
0.0
 40
0.0146151910755776
 40
0.0274571684232495
 40
0.0385255871152021
 40
0.0478202604843759
 40
0.0553410560869598
 40
0.0619508049305126
 40
0.0778899247222982
 40
0.094272267243453
 40
0.1236352681108856
 40
0.1529971013277534
 40
0.1879491367123161
 40
0.2228985188305751
 40
0.2578448118613262
 40
0.2911994864152889
 40
0.3245512908199964
 40
0.3578991184203973
 40
0.3912422951252397
 40
0.4010297351304142
 40
0.410965149557678
 40
0.4211040179927727
 40
0.431443004878226
 40
0.4411271212411626
 40
0.4494915025594824
 40
0.4551424457666884
 40
0.4611087219295319
 40
0.46825537023596
 40
0.4765822199739113
 40
0.4853776334367387
 40
0.493979167436354
 40
0.51782924664796
 40
0.5405470107311703
 40
0.5628019547623742
 40
0.5850552682743363
 40
0.6073068033582019
 40
0.6295557371166617
 40
0.6470360776387567
 40
0.6645154023543651
 40
0.6821579948808045
 40
0.7001073622402206
 40
0.7181831456442722
 40
0.7358201938202822
 40
0.7621419264109673
 40
0.7937918300738014
 40
0.8237631334185073
 40
0.8535414619109355
 40
0.8702179299189592
 40
0.8868939903042203
 40
0.9035035823539319
 40
0.9190456451773538
 40
0.9241822447627416
 40
0.9292615428851592
 40
0.9354201183589834
 40
0.9429452949680814
 40
0.9518373204095952
 40
0.9655490228779682
 40
0.9816043591865676
 40
1.0
 40
1.0
 40
1.0
 40
1.0
 10
3427.526124147642
 20
2311.391576838826
 30
0.0
 10
3427.030524837074
 20
2311.782696660395
 30
0.0
 10
3426.09945567278
 20
2312.517483004203
 30
0.0
 10
3424.706939946723
 20
2313.573815999025
 30
0.0
 10
3423.458524524209
 20
2314.497433713141
 30
0.0
 10
3422.371013802004
 20
2315.283413408941
 30
0.0
 10
3421.430335847388
 20
2315.950647918264
 30
0.0
 10
3420.192842673808
 20
2316.81466443622
 30
0.0
 10
3418.527943204111
 20
2317.948677595585
 30
0.0
 10
3415.742381143681
 20
2319.779824450401
 30
0.0
 10
3412.085756037601
 20
2322.069095337674
 30
0.0
 10
3407.072096898188
 20
2325.019681686419
 30
0.0
 10
3401.205863991349
 20
2328.251936284409
 30
0.0
 10
3394.359982750516
 20
2331.760206102781
 30
0.0
 10
3386.966700398786
 20
2335.282112484143
 30
0.0
 10
3379.046327136235
 20
2338.804303884203
 30
0.0
 10
3370.608117572323
 20
2342.312641697709
 30
0.0
 10
3361.508040110525
 20
2345.839816475715
 30
0.0
 10
3354.039423219727
 20
2348.533548114048
 30
0.0
 10
3348.625184693903
 20
2350.390094021452
 30
0.0
 10
3345.517675998855
 20
2351.431182503573
 30
0.0
 10
3342.289331076494
 20
2352.487172348109
 30
0.0
 10
3339.022996922442
 20
2353.529602416173
 30
0.0
 10
3335.888345112513
 20
2354.506147321282
 30
0.0
 10
3333.225405464586
 20
2355.317736953038
 30
0.0
 10
3330.948272422973
 20
2355.99987628468
 30
0.0
 10
3328.788566808618
 20
2356.637576759691
 30
0.0
 10
3326.294208425888
 20
2357.362175704381
 30
0.0
 10
3323.4327815244
 20
2358.177295279928
 30
0.0
 10
3320.353510497102
 20
2359.035204454314
 30
0.0
 10
3315.339051180821
 20
2360.400275101318
 30
0.0
 10
3308.440679532563
 20
2362.196658019974
 30
0.0
 10
3299.4941626266
 20
2364.372876648698
 30
0.0
 10
3290.433077990879
 20
2366.428606816629
 30
0.0
 10
3281.118867903332
 20
2368.396701462937
 30
0.0
 10
3271.488021907728
 20
2370.282113841881
 30
0.0
 10
3262.264354934696
 20
2371.954634450672
 30
0.0
 10
3253.532433025365
 20
2373.430332543941
 30
0.0
 10
3245.334714623833
 20
2374.729155646613
 30
0.0
 10
3236.900213498861
 20
2375.979085689588
 30
0.0
 10
3228.21010909592
 20
2377.180736532095
 30
0.0
 10
3219.365166057572
 20
2378.320321659073
 30
0.0
 10
3208.970295411885
 20
2379.566900021842
 30
0.0
 10
3196.058103245233
 20
2380.979560363247
 30
0.0
 10
3180.698015979351
 20
2382.455269282967
 30
0.0
 10
3164.401509247262
 20
2383.792442312625
 30
0.0
 10
3150.5369734919
 20
2384.743324501452
 30
0.0
 10
3138.955297044327
 20
2385.419901470216
 30
0.0
 10
3129.722067224952
 20
2385.893915900594
 30
0.0
 10
3120.640284125183
 20
2386.297065552325
 30
0.0
 10
3113.667203545489
 20
2386.560548547575
 30
0.0
 10
3108.836345042
 20
2386.722605643384
 30
0.0
 10
3105.761115215742
 20
2386.819268855807
 30
0.0
 10
3102.232337995081
 20
2386.92195278382
 30
0.0
 10
3097.979760976681
 20
2387.033481699515
 30
0.0
 10
3092.294795720769
 20
2387.163020708465
 30
0.0
 10
3084.985555225138
 20
2387.293211678791
 30
0.0
 10
3075.861906963952
 20
2387.402584177981
 30
0.0
 10
3069.327235454571
 20
2387.420384623205
 30
0.0
 10
3065.83794487525
 20
2387.42988945076
 30
0.0
  0
SPLINE
  5
16D
330
1F
100
AcDbEntity
  8
0
  6
Continuous
 62
     7
370
    15
100
AcDbSpline
210
0.0
220
0.0
230
1.0
 70
     8
 71
     3
 72
    10
 73
     6
 74
     0
 42
0.000000001
 43
0.00000001
 40
17.45572339700001
 40
17.45572339700001
 40
17.45572339700001
 40
17.45572339700001
 40
191.842177937358
 40
314.6602021139421
 40
316.4847344739999
 40
316.4847344739999
 40
316.4847344739999
 40
316.4847344739999
 10
3456.0043171546
 20
2273.36688458571
 30
0.0
 10
3455.41380102802
 20
2274.11924949496
 30
0.0
 10
3452.870441334802
 20
2277.851329170278
 30
0.0
 10
3445.075067802285
 20
2288.140793892341
 30
0.0
 10
3439.271425479983
 20
2293.410567963834
 30
0.0
 10
3439.185918383392
 20
2293.487916906095
 30
0.0
  0
SPLINE
  5
16E
330
1F
100
AcDbEntity
  8
0
  6
Continuous
 62
     7
370
    15
100
AcDbSpline
210
0.0
220
0.0
230
1.0
 70
     8
 71
     3
 72
    12
 73
     8
 74
     0
 42
0.000000001
 43
0.00000001
 40
0.0
 40
0.0
 40
0.0
 40
0.0
 40
0.5000000000000031
 40
0.5000000000000031
 40
0.7500000000000016
 40
0.7500000000000016
 40
1.0
 40
1.0
 40
1.0
 40
1.0
 10
3434.388268891291
 20
2297.56887482572
 30
0.0
 10
3435.279383123666
 20
2296.860448390982
 30
0.0
 10
3436.1197982794
 20
2296.166045006648
 30
0.0
 10
3437.321095472882
 20
2295.145471839416
 30
0.0
 10
3437.711357490042
 20
2294.808803679093
 30
0.0
 10
3438.46874652283
 20
2294.142750072536
 30
0.0
 10
3438.835896471445
 20
2293.813369777432
 30
0.0
 10
3439.195046778155
 20
2293.487543270412
 30
0.0
  0
SPLINE
  5
16F
330
1F
100
AcDbEntity
  8
0
  6
Continuous
 62
     7
370
    15
100
AcDbSpline
210
0.0
220
0.0
230
1.0
 70
     8
 71
     3
 72
    10
 73
     6
 74
     0
 42
0.000000001
 43
0.00000001
 40
0.0
 40
0.0
 40
0.0
 40
0.0
 40
0.5
 40
0.5
 40
1.0
 40
1.0
 40
1.0
 40
1.0
 10
3428.515197378234
 20
2301.953856991446
 30
0.0
 10
3429.592659225168
 20
2301.196797764286
 30
0.0
 10
3430.624737317033
 20
2300.452395913816
 30
0.0
 10
3432.579806882896
 20
2298.990492979549
 30
0.0
 10
3433.50251367716
 20
2298.273039367956
 30
0.0
 10
3434.388269450894
 20
2297.568874804428
 30
0.0
  0
SPLINE
  5
170
330
1F
100
AcDbEntity
  8
0
  6
Continuous
 62
     7
370
    15
100
AcDbSpline
210
0.0
220
0.0
230
1.0
 70
     8
 71
     3
 72
    60
 73
    56
 74
     0
 42
0.000000001
 43
0.00000001
 40
0.0
 40
0.0
 40
0.0
 40
0.0
 40
0.0312500000000001
 40
0.0312500000000001
 40
0.0625000000000001
 40
0.0625000000000001
 40
0.1250000000000003
 40
0.1250000000000003
 40
0.1406250000000003
 40
0.1406250000000003
 40
0.1562500000000004
 40
0.1562500000000004
 40
0.1875000000000004
 40
0.1875000000000004
 40
0.2500000000000002
 40
0.2500000000000002
 40
0.3125
 40
0.3125
 40
0.3437499999999998
 40
0.3437499999999998
 40
0.3593749999999997
 40
0.3593749999999997
 40
0.3749999999999997
 40
0.3749999999999997
 40
0.4374999999999996
 40
0.4374999999999996
 40
0.4531249999999997
 40
0.4531249999999997
 40
0.4687499999999998
 40
0.4687499999999998
 40
0.4999999999999994
 40
0.4999999999999994
 40
0.5624999999999992
 40
0.5624999999999992
 40
0.624999999999999
 40
0.624999999999999
 40
0.6562499999999988
 40
0.6562499999999988
 40
0.671874999999999
 40
0.671874999999999
 40
0.6874999999999991
 40
0.6874999999999991
 40
0.7187499999999989
 40
0.7187499999999989
 40
0.7499999999999988
 40
0.7499999999999988
 40
0.8124999999999986
 40
0.8124999999999986
 40
0.8437499999999987
 40
0.8437499999999987
 40
0.8749999999999989
 40
0.8749999999999989
 40
0.9374999999999994
 40
0.9374999999999994
 40
1.0
 40
1.0
 40
1.0
 40
1.0
 10
3063.950867911783
 20
2371.848620297103
 30
0.0
 10
3069.63605915787
 20
2371.85146217195
 30
0.0
 10
3075.320320722235
 20
2371.82580353747
 30
0.0
 10
3086.673436764682
 20
2371.716688309129
 30
0.0
 10
3092.329689101698
 20
2371.633346832045
 30
0.0
 10
3109.238459285745
 20
2371.296363657712
 30
0.0
 10
3120.431606999616
 20
2370.956779709393
 30
0.0
 10
3134.32509590242
 20
2370.384341694387
 30
0.0
 10
3137.098863936702
 20
2370.26240377676
 30
0.0
 10
3142.636477299307
 20
2370.003368500699
 30
0.0
 10
3145.400572578495
 20
2369.866243393938
 30
0.0
 10
3153.653480178425
 20
2369.433077684314
 30
0.0
 10
3159.11111758968
 20
2369.114889684877
 30
0.0
 10
3175.3520795403
 20
2368.070857485147
 30
0.0
 10
3186.003724772685
 20
2367.255558926279
 30
0.0
 10
3206.954894000508
 20
2365.377446640385
 30
0.0
 10
3217.171229638242
 20
2364.322521799549
 30
0.0
 10
3232.100250136215
 20
2362.56177735031
 30
0.0
 10
3237.010723838706
 20
2361.944973439179
 30
0.0
 10
3244.275974185517
 20
2360.973581999684
 30
0.0
 10
3246.682678390306
 20
2360.641853606005
 30
0.0
 10
3251.452424253049
 20
2359.964245678771
 30
0.0
 10
3253.815443507304
 20
2359.618388229139
 30
0.0
 10
3265.521629117425
 20
2357.853708328229
 30
0.0
 10
3274.539020572768
 20
2356.329035275846
 30
0.0
 10
3285.372532153833
 20
2354.27687159685
 30
0.0
 10
3287.517185900614
 20
2353.859047327764
 30
0.0
 10
3291.76270020526
 20
2353.008832120499
 30
0.0
 10
3293.861610416263
 20
2352.576882554521
 30
0.0
 10
3300.071251272644
 20
2351.265410106507
 30
0.0
 10
3304.102143581746
 20
2350.368859964499
 30
0.0
 10
3315.888178050125
 20
2347.621515751009
 30
0.0
 10
3323.337770892585
 20
2345.713205073126
 30
0.0
 10
3337.497579829743
 20
2341.784998829231
 30
0.0
 10
3344.206768891387
 20
2339.764875003057
 30
0.0
 10
3353.758804835699
 20
2336.680619585214
 30
0.0
 10
3356.857465048287
 20
2335.643524096468
 30
0.0
 10
3361.382564311609
 20
2334.078183493028
 30
0.0
 10
3362.87095183975
 20
2333.554609989796
 30
0.0
 10
3365.801724879568
 20
2332.506961726923
 30
0.0
 10
3367.24473769711
 20
2331.982649774689
 30
0.0
 10
3371.507508871186
 20
2330.408908832508
 30
0.0
 10
3374.261018620653
 20
2329.358673538087
 30
0.0
 10
3379.595462165279
 20
2327.259583180319
 30
0.0
 10
3382.174073394339
 20
2326.211617510761
 30
0.0
 10
3389.64187295603
 20
2323.081702025167
 30
0.0
 10
3394.266024841711
 20
2321.011964135416
 30
0.0
 10
3400.707688773196
 20
2317.953999817014
 30
0.0
 10
3402.772868710429
 20
2316.942361720612
 30
0.0
 10
3406.742204096973
 20
2314.93872846952
 30
0.0
 10
3408.642496944131
 20
2313.948695572469
 30
0.0
 10
3414.096358489874
 20
2311.018964290893
 30
0.0
 10
3417.399679584274
 20
2309.121191276761
 30
0.0
 10
3423.3889586658
 20
2305.446395379896
 30
0.0
 10
3426.074381372051
 20
2303.668851627026
 30
0.0
 10
3428.515197377358
 20
2301.953856991558
 30
0.0
  0
SPLINE
  5
171
330
1F
100
AcDbEntity
  8
0
  6
Continuous
 62
     7
370
    15
100
AcDbSpline
210
0.0
220
0.0
230
1.0
 70
     8
 71
     3
 72
    66
 73
    62
 74
     0
 42
0.000000001
 43
0.00000001
 40
0.0
 40
0.0
 40
0.0
 40
0.0
 40
0.03125
 40
0.03125
 40
0.0625
 40
0.0625
 40
0.1250000000000006
 40
0.1250000000000006
 40
0.1562500000000008
 40
0.1562500000000008
 40
0.1875000000000011
 40
0.1875000000000011
 40
0.2500000000000016
 40
0.2500000000000016
 40
0.2812500000000019
 40
0.2812500000000019
 40
0.3125000000000023
 40
0.3125000000000023
 40
0.3750000000000025
 40
0.3750000000000025
 40
0.3906250000000027
 40
0.3906250000000027
 40
0.4062500000000029
 40
0.4062500000000029
 40
0.4375000000000032
 40
0.4375000000000032
 40
0.4531250000000033
 40
0.4531250000000033
 40
0.4687500000000034
 40
0.4687500000000034
 40
0.5000000000000033
 40
0.5000000000000033
 40
0.5312500000000032
 40
0.5312500000000032
 40
0.5625000000000031
 40
0.5625000000000031
 40
0.5781250000000028
 40
0.5781250000000028
 40
0.5937500000000024
 40
0.5937500000000024
 40
0.6250000000000022
 40
0.6250000000000022
 40
0.6562500000000019
 40
0.6562500000000019
 40
0.6718750000000018
 40
0.6718750000000018
 40
0.6875000000000017
 40
0.6875000000000017
 40
0.750000000000002
 40
0.750000000000002
 40
0.781250000000002
 40
0.781250000000002
 40
0.796875000000002
 40
0.796875000000002
 40
0.812500000000002
 40
0.812500000000002
 40
0.8750000000000014
 40
0.8750000000000014
 40
0.9375000000000008
 40
0.9375000000000008
 40
1.0
 40
1.0
 40
1.0
 40
1.0
 10
2708.664612466531
 20
2306.458202251541
 30
0.0
 10
2710.0263310572
 20
2307.318691305052
 30
0.0
 10
2711.451536677725
 20
2308.19310680905
 30
0.0
 10
2714.44457556396
 20
2309.969362065804
 30
0.0
 10
2716.011410192973
 20
2310.870766546252
 30
0.0
 10
2720.93460503816
 20
2313.613016612684
 30
0.0
 10
2724.513672533039
 20
2315.491921777867
 30
0.0
 10
2730.32801330517
 20
2318.360414894628
 30
0.0
 10
2732.341247922469
 20
2319.325318679731
 30
0.0
 10
2736.519806890611
 20
2321.268647712898
 30
0.0
 10
2738.682784830437
 20
2322.245979435526
 30
0.0
 10
2745.398157074393
 20
2325.190351160685
 30
0.0
 10
2750.176684528944
 20
2327.169751366634
 30
0.0
 10
2757.821724365779
 20
2330.145643856231
 30
0.0
 10
2760.450737680778
 20
2331.139133916607
 30
0.0
 10
2765.86827277677
 20
2333.123751832456
 30
0.0
 10
2768.652312671582
 20
2334.11347243625
 30
0.0
 10
2777.239348013134
 20
2337.06882880555
 30
0.0
 10
2783.277689974391
 20
2339.020530382477
 30
0.0
 10
2791.257929132491
 20
2341.415328345126
 30
0.0
 10
2792.875614559058
 20
2341.892044244714
 30
0.0
 10
2796.155362415966
 20
2342.840435355606
 30
0.0
 10
2797.818071024528
 20
2343.312289014496
 30
0.0
 10
2802.86938830139
 20
2344.718039096777
 30
0.0
 10
2806.319709426728
 20
2345.641752552064
 30
0.0
 10
2811.62386481387
 20
2347.003916073356
 30
0.0
 10
2813.413375619994
 20
2347.454067605061
 30
0.0
 10
2817.036257547075
 20
2348.345994981688
 30
0.0
 10
2818.870480232759
 20
2348.787969187293
 30
0.0
 10
2824.433313344729
 20
2350.098739150365
 30
0.0
 10
2828.221308361569
 20
2350.95226881883
 30
0.0
 10
2835.962597157339
 20
2352.614016984641
 30
0.0
 10
2839.915950758766
 20
2353.422181981315
 30
0.0
 10
2847.995948891268
 20
2354.988280809867
 30
0.0
 10
2852.122173674895
 20
2355.746535908295
 30
0.0
 10
2858.440646073659
 20
2356.847294972647
 30
0.0
 10
2860.569726637612
 20
2357.208334335979
 30
0.0
 10
2864.863679543936
 20
2357.917052042569
 30
0.0
 10
2867.027851010121
 20
2358.264629946198
 30
0.0
 10
2873.571541673284
 20
2359.287308396913
 30
0.0
 10
2878.002203211295
 20
2359.942366918132
 30
0.0
 10
2886.998582929559
 20
2361.200230460452
 30
0.0
 10
2891.56430906797
 20
2361.803031749512
 30
0.0
 10
2898.513964870835
 20
2362.668643055936
 30
0.0
 10
2900.847365801885
 20
2362.950746720265
 30
0.0
 10
2905.547902161258
 20
2363.502160543287
 30
0.0
 10
2907.916537146893
 20
2363.77163373308
 30
0.0
 10
2919.824159803847
 20
2365.084945919769
 30
0.0
 10
2929.545659705232
 20
2366.025949614127
 30
0.0
 10
2944.416442958785
 20
2367.279839880999
 30
0.0
 10
2949.421520826265
 20
2367.671478868228
 30
0.0
 10
2957.001852916678
 20
2368.219870688225
 30
0.0
 10
2959.543087014047
 20
2368.396305367422
 30
0.0
 10
2964.63730067804
 20
2368.73535151668
 30
0.0
 10
2967.189461131227
 20
2368.897925129642
 30
0.0
 10
2979.975329918376
 20
2369.676642990036
 30
0.0
 10
2990.284077248823
 20
2370.190555246897
 30
0.0
 10
3011.059176932046
 20
2371.011816983755
 30
0.0
 10
3021.525243565051
 20
2371.319573578357
 30
0.0
 10
3042.615877335576
 20
2371.735876058642
 30
0.0
 10
3053.241195228654
 20
2371.843266819345
 30
0.0
 10
3063.950867911787
 20
2371.84862029702
 30
0.0
  0
SPLINE
  5
172
330
1F
100
AcDbEntity
  8
0
  6
Continuous
 62
     7
370
    15
100
AcDbSpline
210
0.0
220
0.0
230
1.0
 70
     8
 71
     3
 72
     8
 73
     4
 74
     0
 42
0.000000001
 43
0.00000001
 40
1447.717489170999
 40
1447.717489170999
 40
1447.717489170999
 40
1447.717489170999
 40
1462.875614995998
 40
1462.875614995998
 40
1462.875614995998
 40
1462.875614995998
 10
2708.644830672139
 20
2306.457675883267
 30
0.0
 10
2707.378327525771
 20
2305.65871451482
 30
0.0
 10
2706.169398175457
 20
2304.872185614413
 30
0.0
 10
2705.014693631236
 20
2304.09840035229
 30
0.0
  0
SPLINE
  5
173
330
1F
100
AcDbEntity
  8
0
  6
Continuous
 62
     7
370
    15
100
AcDbSpline
210
0.0
220
0.0
230
1.0
 70
     8
 71
     3
 72
     8
 73
     4
 74
     0
 42
0.000000001
 43
0.00000001
 40
1462.875614995998
 40
1462.875614995998
 40
1462.875614995998
 40
1462.875614995998
 40
1493.542258324989
 40
1493.542258324989
 40
1493.542258324989
 40
1493.542258324989
 10
2705.014693631235
 20
2304.09840035229
 30
0.0
 10
2702.678592663554
 20
2302.532943189532
 30
0.0
 10
2700.564433686213
 20
2301.019645705142
 30
0.0
 10
2698.644485027588
 20
2299.561084577811
 30
0.0
  0
SPLINE
  5
174
330
1F
100
AcDbEntity
  8
0
  6
Continuous
 62
     7
370
    15
100
AcDbSpline
210
0.0
220
0.0
230
1.0
 70
     8
 71
     3
 72
     8
 73
     4
 74
     0
 42
0.000000001
 43
0.00000001
 40
1493.542258324989
 40
1493.542258324989
 40
1493.542258324989
 40
1493.542258324989
 40
1509.037091589
 40
1509.037091589
 40
1509.037091589
 40
1509.037091589
 10
2698.644485027588
 20
2299.561084577811
 30
0.0
 10
2697.674398930402
 20
2298.824122229799
 30
0.0
 10
2696.75389364478
 20
2298.101133768568
 30
0.0
 10
2695.879392013373
 20
2297.392451564456
 30
0.0
  0
SPLINE
  5
175
330
1F
100
AcDbEntity
  8
0
  6
Continuous
 62
     7
370
    15
100
AcDbSpline
210
0.0
220
0.0
230
1.0
 70
     8
 71
     3
 72
     8
 73
     4
 74
     0
 42
0.000000001
 43
0.00000001
 40
1509.037091589
 40
1509.037091589
 40
1509.037091589
 40
1509.037091589
 40
1524.359333804
 40
1524.359333804
 40
1524.359333804
 40
1524.359333804
 10
2695.879392013373
 20
2297.392451564456
 30
0.0
 10
2695.014631122724
 20
2296.691663101629
 30
0.0
 10
2694.194854759525
 20
2296.004863966978
 30
0.0
 10
2693.416603973708
 20
2295.332375547655
 30
0.0
  0
SPLINE
  5
176
330
1F
100
AcDbEntity
  8
0
  6
Continuous
 62
     7
370
    15
100
AcDbSpline
210
0.0
220
0.0
230
1.0
 70
     8
 71
     3
 72
     8
 73
     4
 74
     0
 42
0.000000001
 43
0.00000001
 40
1524.359333804
 40
1524.359333804
 40
1524.359333804
 40
1524.359333804
 40
1539.766504953
 40
1539.766504953
 40
1539.766504953
 40
1539.766504953
 10
2693.416603973708
 20
2295.332375547655
 30
0.0
 10
2692.634039458302
 20
2294.656159623979
 30
0.0
 10
2691.893462136408
 20
2293.994413499679
 30
0.0
 10
2691.191355221203
 20
2293.347463935792
 30
0.0
  0
SPLINE
  5
177
330
1F
100
AcDbEntity
  8
0
  6
Continuous
 62
     7
370
    15
100
AcDbSpline
210
0.0
220
0.0
230
1.0
 70
     8
 71
     3
 72
     9
 73
     5
 74
     0
 42
0.000000001
 43
0.00000001
 40
1539.766504953
 40
1539.766504953
 40
1539.766504953
 40
1539.766504953
 40
1542.84044388036
 40
1601.23019828
 40
1601.23019828
 40
1601.23019828
 40
1601.23019828
 10
2691.191355221203
 20
2293.347463935792
 30
0.0
 10
2691.051275400128
 20
2293.218388751955
 30
0.0
 10
2688.280985685563
 20
2290.649295347924
 30
0.0
 10
2686.111764820743
 20
2288.316718502357
 30
0.0
 10
2684.42000773126
 20
2286.329982812779
 30
0.0
  0
SPLINE
  5
178
330
1F
100
AcDbEntity
  8
0
  6
Continuous
 62
     7
370
    15
100
AcDbSpline
210
0.0
220
0.0
230
1.0
 70
     8
 71
     3
 72
     8
 73
     4
 74
     0
 42
0.000000001
 43
0.00000001
 40
1601.23019828
 40
1601.23019828
 40
1601.23019828
 40
1601.23019828
 40
1602.490249095
 40
1602.490249095
 40
1602.490249095
 40
1602.490249095
 10
2684.42000773126
 20
2286.329982812779
 30
0.0
 10
2684.38349961573
 20
2286.287109059488
 30
0.0
 10
2684.347163331024
 20
2286.244342036202
 30
0.0
 10
2684.310997133771
 20
2286.201681901033
 30
0.0
  0
SPLINE
  5
179
330
1F
100
AcDbEntity
  8
0
  6
Continuous
 62
     7
370
    15
100
AcDbSpline
210
0.0
220
0.0
230
1.0
 70
     8
 71
     3
 72
     8
 73
     4
 74
     0
 42
0.000000001
 43
0.00000001
 40
1602.490249095
 40
1602.490249095
 40
1602.490249095
 40
1602.490249095
 40
1611.558339954623
 40
1611.558339954623
 40
1611.558339954623
 40
1611.558339954623
 10
2684.310997133771
 20
2286.201681901033
 30
0.0
 10
2684.05072321558
 20
2285.894673662006
 30
0.0
 10
2683.799258323221
 20
2285.593201282147
 30
0.0
 10
2683.555952666262
 20
2285.297323693224
 30
0.0
  0
SPLINE
  5
17A
330
1F
100
AcDbEntity
  8
0
  6
Continuous
 62
     7
370
    15
100
AcDbSpline
210
0.0
220
0.0
230
1.0
 70
     8
 71
     3
 72
     8
 73
     4
 74
     0
 42
0.000000001
 43
0.00000001
 40
1611.558339954614
 40
1611.558339954614
 40
1611.558339954614
 40
1611.558339954614
 40
1616.71955983
 40
1616.71955983
 40
1616.71955983
 40
1616.71955983
 10
2683.555952666263
 20
2285.297323693225
 30
0.0
 10
2683.417472140216
 20
2285.12892117981
 30
0.0
 10
2683.281634768116
 20
2284.962331078103
 30
0.0
 10
2683.148320742797
 20
2284.797564253832
 30
0.0
  0
SPLINE
  5
17B
330
1F
100
AcDbEntity
  8
0
  6
Continuous
 62
     7
370
    15
100
AcDbSpline
210
0.0
220
0.0
230
1.0
 70
     8
 71
     3
 72
    14
 73
    10
 74
     0
 42
0.000000001
 43
0.00000001
 40
0.0
 40
0.0
 40
0.0
 40
0.0
 40
0.0732328390004907
 40
0.2586289487860967
 40
0.4439169670861479
 40
0.5828578501299446
 40
0.7218230823697349
 40
0.8608646421142038
 40
1.0
 40
1.0
 40
1.0
 40
1.0
 10
2674.084483378151
 20
2273.138409018826
 30
0.0
 10
2674.110567830401
 20
2273.147047556072
 30
0.0
 10
2674.202687630168
 20
2273.177555397055
 30
0.0
 10
2674.775139743876
 20
2273.841953668233
 30
0.0
 10
2675.796851693901
 20
2275.123975653114
 30
0.0
 10
2677.147352173662
 20
2276.893436522183
 30
0.0
 10
2678.720641520867
 20
2278.973104861319
 30
0.0
 10
2680.605638792329
 20
2281.544610619985
 30
0.0
 10
2682.300569588747
 20
2283.713002656713
 30
0.0
 10
2683.148320742797
 20
2284.797564253832
 30
0.0
  0
LINE
  5
17C
330
1F
100
AcDbEntity
  8
0
  6
Continuous
 62
     7
370
    15
100
AcDbLine
 10
2671.5494010725
 20
2273.1001990474
 30
0.0
 11
2671.6068245687
 21
2273.1039639313
 31
0.0
  0
LWPOLYLINE
  5
17D
330
1F
100
AcDbEntity
  8
0
  6
Continuous
 62
     7
370
    15
100
AcDbPolyline
 90
      205
 70
   128
 43
0.0
 10
2670.8894066872
 20
2274.7989516156
 10
2670.90965445
 20
2274.8003127928
 10
2671.4112729461
 20
2275.3211807333
 10
2672.3325060473
 20
2276.4295603084
 10
2673.7376806513
 20
2278.2017123928
 10
2675.6913464247
 20
2280.7136871585
 10
2678.2650018928
 20
2284.0414336173
 10
2680.6897771829
 20
2287.0414799352
 10
2683.7419142787
 20
2290.4831510313
 10
2684.2532985805
 20
2291.0242782131
 10
2684.782790306
 20
2291.5746183337
 10
2685.3310031311
 20
2292.1341425902
 10
2685.8985504165
 20
2292.7028221503
 10
2686.4860452004
 20
2293.2806281519
 10
2686.9244001983
 20
2293.704841809
 10
2687.6585303779
 20
2294.4026400977
 10
2688.5144335086
 20
2295.1972068208
 10
2689.5054554502
 20
2296.0932964042
 10
2690.8153932471
 20
2297.2412783394
 10
2692.3464481531
 20
2298.5349253813
 10
2694.1297094197
 20
2299.9827426404
 10
2696.1832448415
 20
2301.5799055085
 10
2698.288201851
 20
2303.1479037239
 10
2700.3717489046
 20
2304.6385876271
 10
2702.7670700484
 20
2306.2850326926
 10
2705.0599260565
 20
2307.8006655396
 10
2707.2119042699
 20
2309.1748210541
 10
2709.1863727089
 20
2310.3981117038
 10
2710.0766093463
 20
2310.9387113294
 10
2710.9746020498
 20
2311.4774677312
 10
2711.8800576284
 20
2312.0142680369
 10
2712.7926758574
 20
2312.5490008972
 10
2713.7121497837
 20
2313.0815564749
 10
2714.6381617596
 20
2313.6118239286
 10
2715.5703151974
 20
2314.139651142
 10
2720.7865516508
 20
2316.991168874
 10
2723.9423072815
 20
2318.6395761904
 10
2727.1172000825
 20
2320.2453739526
 10
2730.7779894976
 20
2322.0364183869
 10
2737.8440384724
 20
2325.3272400754
 10
2745.1679054981
 20
2328.5307557071
 10
2752.697035022
 20
2331.6272634452
 10
2756.6197877931
 20
2333.167988
 10
2759.8638131827
 20
2334.4066948843
 10
2763.5957066528
 20
2335.7937744693
 10
2767.4142641042
 20
2337.1729889536
 10
2770.5811386104
 20
2338.2870634978
 10
2773.4856800077
 20
2339.2857849157
 10
2776.7764997084
 20
2340.3913290526
 10
2780.4743424696
 20
2341.6015164641
 10
2784.682403527
 20
2342.9385552022
 10
2789.2663332401
 20
2344.3479006377
 10
2795.7943726772
 20
2346.2732811731
 10
2801.9191335265
 20
2347.9959189678
 10
2807.5846741863
 20
2349.5197178168
 10
2812.73965601
 20
2350.8495918249
 10
2817.3384319507
 20
2351.9915139739
 10
2821.3410924756
 20
2352.9519477044
 10
2823.356865121
 20
2353.4240075159
 10
2825.3704010576
 20
2353.8878635805
 10
2827.3812521577
 20
2354.3435040357
 10
2829.3889741865
 20
2354.79092259
 10
2831.3931268086
 20
2355.2301183695
 10
2833.3932735957
 20
2355.6610957668
 10
2835.3889820332
 20
2356.083864291
 10
2837.379823528
 20
2356.4984384187
 10
2849.752840806
 20
2358.9197210733
 10
2856.9662209634
 20
2360.2163366797
 10
2864.0344998231
 20
2361.4117671532
 10
2871.863427972
 20
2362.6546489032
 10
2882.7173839086
 20
2364.2461471784
 10
2893.3047884983
 20
2365.6613393882
 10
2904.235327264
 20
2366.9907114607
 10
2916.4607979252
 20
2368.3317999339
 10
2919.6558149002
 20
2368.6584173936
 10
2923.2298502976
 20
2369.0125440152
 10
2927.1882304166
 20
2369.3912245404
 10
2931.5365504888
 20
2369.791217708
 10
2936.2805959195
 20
2370.2090004336
 10
2941.426256257
 20
2370.6407724489
 10
2947.1843558928
 20
2371.098299721
 10
2952.7114570882
 20
2371.5127173023
 10
2958.8868703969
 20
2371.9477865119
 10
2964.1829245945
 20
2372.2979497921
 10
2968.5837939848
 20
2372.5731505101
 10
2972.8187226772
 20
2372.8247277649
 10
2979.2678220545
 20
2373.1833638493
 10
2993.0746536952
 20
2373.8544945979
 10
3006.0277707646
 20
2374.3683599432
 10
3018.0843944361
 20
2374.7496249397
 10
3029.2087885012
 20
2375.021069779
 10
3034.6872614893
 20
2375.1270391036
 10
3040.0816852626
 20
2375.2137354676
 10
3045.3901495117
 20
2375.2821002383
 10
3050.6109034051
 20
2375.3330559784
 10
3055.7423488558
 20
2375.3675065017
 10
3060.7971703503
 20
2375.386364242
 10
3065.9131064068
 20
2375.3902190178
 10
3075.5378231978
 20
2375.3558539561
 10
3085.4723743719
 20
2375.2630752693
 10
3094.6325111905
 20
2375.1254840914
 10
3106.8380577473
 20
2374.8635104531
 10
3119.5584725028
 20
2374.4929030453
 10
3132.7630819239
 20
2373.9997934739
 10
3146.4186256461
 20
2373.369227926
 10
3148.9337734153
 20
2373.2392778049
 10
3151.546760115
 20
2373.0996250497
 10
3154.2567885392
 20
2372.9497279868
 10
3157.0630013227
 20
2372.7890221891
 10
3159.9644776124
 20
2372.616920327
 10
3162.9602296132
 20
2372.4328120155
 10
3170.388432477
 20
2371.9476507432
 10
3178.3188560925
 20
2371.383396429
 10
3182.552740216
 20
2371.0619920999
 10
3186.9099877267
 20
2370.7161872646
 10
3191.3876344917
 20
2370.3446289253
 10
3195.9824516685
 20
2369.945940335
 10
3200.6909594065
 20
2369.5187054124
 10
3206.6209678476
 20
2368.9530429733
 10
3212.2903892216
 20
2368.3826293031
 10
3217.1052502639
 20
2367.874794278
 10
3221.082775222
 20
2367.438619141
 10
3224.2380725177
 20
2367.0816356891
 10
3226.5837063854
 20
2366.8098390964
 10
3228.1293551819
 20
2366.6276983428
 10
3230.6874624966
 20
2366.3208216097
 10
3234.271063978
 20
2365.8793677187
 10
3244.0574961083
 20
2364.6025932713
 10
3253.7302368356
 20
2363.2323479941
 10
3266.8581993383
 20
2361.184845203
 10
3279.7471788622
 20
2358.9405408889
 10
3292.3396844541
 20
2356.4926354272
 10
3304.5880644114
 20
2353.8431252796
 10
3316.4638024067
 20
2351.0088981043
 10
3327.9396907804
 20
2348.0102878913
 10
3338.9885144946
 20
2344.8695425453
 10
3341.7279171885
 20
2344.0504402519
 10
3344.4428873907
 20
2343.2221993785
 10
3347.1328358061
 20
2342.3851276205
 10
3349.7971725786
 20
2341.5395453676
 10
3352.4353073381
 20
2340.6857858999
 10
3355.0466492493
 20
2339.8241955866
 10
3357.6306070587
 20
2338.9551340858
 10
3359.9504573425
 20
2338.1606150952
 10
3363.1011942162
 20
2337.0593735109
 10
3366.5895246013
 20
2335.809598239
 10
3370.3860637373
 20
2334.4116919869
 10
3374.4589946445
 20
2332.8664341848
 10
3378.459063139
 20
2331.3007052265
 10
3381.7897576662
 20
2329.9588566033
 10
3385.0691562494
 20
2328.6022474517
 10
3388.2948891821
 20
2327.232011782
 10
3391.4646380146
 20
2325.8493641332
 10
3394.5761375036
 20
2324.45560221
 10
3397.6268734295
 20
2323.0521351885
 10
3399.5438234043
 20
2322.1505633331
 10
3401.4578944879
 20
2321.2344407185
 10
3403.3665643558
 20
2320.3043975037
 10
3405.2672692184
 20
2319.3611147479
 10
3407.1574043824
 20
2318.405326723
 10
3409.0343248222
 20
2317.4378232724
 10
3410.8953457585
 20
2316.4594522181
 10
3415.9087957582
 20
2313.7205368906
 10
3420.7269760093
 20
2310.9262457235
 10
3425.3095738373
 20
2308.0929931948
 10
3429.623329902
 20
2305.2375270336
 10
3430.551797202
 20
2304.5952947117
 10
3431.4649974421
 20
2303.9530854397
 10
3432.3626679321
 20
2303.3111246262
 10
3432.8921772222
 20
2302.9272816681
 10
3433.396355097
 20
2302.558111119
 10
3433.9272721026
 20
2302.1653573862
 10
3434.4832564699
 20
2301.7495243662
 10
3435.8307253516
 20
2300.7215549259
 10
3437.276853662
 20
2299.5843748477
 10
3438.7986414363
 20
2298.3462262856
 10
3440.3722929813
 20
2297.0165368879
 10
3441.973795208
 20
2295.6060014774
 10
3443.4794918467
 20
2294.2208640946
 10
3444.765343086
 20
2292.9872442509
 10
3446.2610091305
 20
2291.4861841078
 10
3447.4891110933
 20
2290.1941669461
 10
3448.4929489756
 20
2289.0939847973
 10
3449.3072383499
 20
2288.1700836961
 10
3449.6067238913
 20
2287.8228612309
 10
3449.8967539796
 20
2287.4826997317
 10
3450.1776729052
 20
2287.1495197505
 10
3450.4498159875
 20
2286.8232418041
 10
3450.713509711
 20
2286.5037863856
 10
3450.9690718602
 20
2286.1910739771
 10
3451.2168116541
 20
2285.8850250612
 10
3451.4570298792
 20
2285.5855601332
 10
3452.812568557
 20
2283.8489463773
 10
3453.8343102258
 20
2282.4995295007
 10
3454.7149429954
 20
2281.3241424913
 10
3455.2681950693
 20
2280.5810819365
 10
3455.7645609075
 20
2279.911183739
 10
3456.2091172331
 20
2279.3084940404
 10
3456.6305317812
 20
2278.7347461379
 10
3457.0880190337
 20
2278.1092047111
 10
3457.9315042875
 20
2276.9492983295
 10
3458.5627851939
 20
2276.0788148757
 10
3459.0184890362
 20
2275.4561957649
 10
3459.3308086806
 20
2275.0441191333
 10
3459.3308086806
 20
2275.0441191333
  0
LINE
  5
17E
330
1F
100
AcDbEntity
  8
0
  6
Continuous
 62
     7
370
    15
100
AcDbLine
 10
2670.7634694136
 20
2274.7904853499
 30
0.0
 11
2672.2569365718
 21
2276.338639061
 31
0.0
  0
SPLINE
  5
17F
330
1F
100
AcDbEntity
  8
0
  6
Continuous
 62
     7
370
    15
100
AcDbSpline
210
0.0
220
0.0
230
1.0
 70
     8
 71
     3
 72
     9
 73
     5
 74
     0
 42
0.000000001
 43
0.00000001
 40
0.0
 40
0.0
 40
0.0
 40
0.0
 40
0.8769051337679225
 40
1.0
 40
1.0
 40
1.0
 40
1.0
 10
3459.336077628668
 20
2275.038093574164
 30
0.0
 10
3459.399215608438
 20
2274.961271879519
 30
0.0
 10
3459.471216532299
 20
2274.873666400104
 30
0.0
 10
3459.506481384801
 20
2274.76786585534
 30
0.0
 10
3459.510822307102
 20
2274.754842351434
 30
0.0
  0
LINE
  5
180
330
1F
100
AcDbEntity
  8
0
  6
Continuous
 62
     7
370
    15
100
AcDbLine
 10
2711.6433439989
 20
2313.6637720585
 30
0.0
 11
2711.9527963794
 21
2313.8583750132
 31
0.0
  0
SPLINE
  5
181
330
1F
100
AcDbEntity
  8
0
  6
Continuous
 62
     7
370
    15
100
AcDbSpline
210
0.0
220
0.0
230
1.0
 70
    24
 71
     3
 72
    17
 73
    13
 74
     0
 42
0.000000001
 43
0.00000001
 40
1595.416223416258
 40
1595.416223416258
 40
1595.416223416258
 40
1595.416223416258
 40
1620.290361301
 40
1645.407305719
 40
1695.399835067
 40
1745.392364415
 40
1795.384893763
 40
1845.377423112
 40
1895.36995246
 40
1945.362481808
 40
1995.355011156
 40
2045.347129593749
 40
2045.347129593749
 40
2045.347129593749
 40
2045.347129593749
 10
3062.237069152179
 20
1673.591420214164
 30
0.0
 10
3068.786222872283
 20
1673.591420214163
 30
0.0
 10
3081.900105832306
 20
1673.591420214163
 30
0.0
 10
3108.370336021668
 20
1673.591420214164
 30
0.0
 10
3140.446886303668
 20
1673.591420214164
 30
0.0
 10
3177.369941366668
 20
1673.591420214164
 30
0.0
 10
3211.391645073668
 20
1673.591420214164
 30
0.0
 10
3241.604542906668
 20
1673.591420214164
 30
0.0
 10
3267.519074917668
 20
1673.591420214164
 30
0.0
 10
3288.401851578668
 20
1673.591420214164
 30
0.0
 10
3303.644761905081
 20
1673.591420214164
 30
0.0
 10
3309.917156818528
 20
1673.591420214164
 30
0.0
 10
3311.958793089425
 20
1673.591420214164
 30
0.0
  0
SPLINE
  5
182
330
1F
100
AcDbEntity
  8
0
  6
Continuous
 62
     7
370
    15
100
AcDbSpline
210
0.0
220
0.0
230
1.0
 70
    24
 71
     3
 72
    17
 73
    13
 74
     0
 42
0.000000001
 43
0.00000001
 40
1172.533744123546
 40
1172.533744123546
 40
1172.533744123546
 40
1172.533744123546
 40
1197.405417479
 40
1247.15658734
 40
1296.907757202
 40
1346.658927063
 40
1396.410096925
 40
1446.161266786
 40
1495.912436648
 40
1545.663606509
 40
1570.53919144
 40
1595.416223417244
 40
1595.416223417244
 40
1595.416223417244
 40
1595.416223417244
 10
2821.445231233059
 20
1673.591420214164
 30
0.0
 10
2822.89870428642
 20
1673.591420214164
 30
0.0
 10
2828.090067336595
 20
1673.591420214164
 30
0.0
 10
2840.307985245668
 20
1673.591420214164
 30
0.0
 10
2860.482592101668
 20
1673.591420214164
 30
0.0
 10
2885.645949909668
 20
1673.591420214164
 30
0.0
 10
2915.306958555668
 20
1673.591420214164
 30
0.0
 10
2948.767730800668
 20
1673.591420214164
 30
0.0
 10
2984.701212256668
 20
1673.591420214164
 30
0.0
 10
3016.809570640668
 20
1673.591420214164
 30
0.0
 10
3042.524491174916
 20
1673.591420214164
 30
0.0
 10
3055.687154319561
 20
1673.591420214164
 30
0.0
 10
3062.237069152177
 20
1673.591420214164
 30
0.0
  0
SPLINE
  5
183
330
1F
100
AcDbEntity
  8
0
  6
Continuous
 62
     7
370
    15
100
AcDbSpline
210
0.0
220
0.0
230
1.0
 70
    24
 71
     3
 72
     8
 73
     4
 74
     0
 42
0.000000001
 43
0.00000001
 40
0.0
 40
0.0
 40
0.0
 40
0.0
 40
1.0
 40
1.0
 40
1.0
 40
1.0
 10
2819.435580339079
 20
1673.591420214164
 30
0.0
 10
2820.043082460682
 20
1673.591420214164
 30
0.0
 10
2820.713421517339
 20
1673.591420214163
 30
0.0
 10
2821.445226208598
 20
1673.591420214163
 30
0.0
  0
SPLINE
  5
184
330
1F
100
AcDbEntity
  8
0
  6
Continuous
 62
     7
370
    15
100
AcDbSpline
210
0.0
220
0.0
230
1.0
 70
    24
 71
     3
 72
     8
 73
     4
 74
     0
 42
0.000000001
 43
0.00000001
 40
0.0
 40
0.0
 40
0.0
 40
0.0
 40
1.0
 40
1.0
 40
1.0
 40
1.0
 10
2816.545216479748
 20
1673.591420214164
 30
0.0
 10
2817.255475692587
 20
1673.591420214164
 30
0.0
 10
2818.220635272596
 20
1673.591420214164
 30
0.0
 10
2819.435580337512
 20
1673.591420214164
 30
0.0
  0
SPLINE
  5
185
330
1F
100
AcDbEntity
  8
0
  6
Continuous
 62
     7
370
    15
100
AcDbSpline
210
0.0
220
0.0
230
1.0
 70
    24
 71
     3
 72
    10
 73
     6
 74
     0
 42
0.000000001
 43
0.00000001
 40
0.0
 40
0.0
 40
0.0
 40
0.0
 40
0.5
 40
0.5
 40
1.0
 40
1.0
 40
1.0
 40
1.0
 10
3311.958797055368
 20
1673.591420214164
 30
0.0
 10
3312.478679637056
 20
1673.591420214164
 30
0.0
 10
3312.931451709312
 20
1673.591420214164
 30
0.0
 10
3313.714480744827
 20
1673.591420214164
 30
0.0
 10
3314.044795484289
 20
1673.591420214163
 30
0.0
 10
3314.304442713326
 20
1673.591420214163
 30
0.0
  0
SPLINE
  5
186
330
1F
100
AcDbEntity
  8
0
  6
Continuous
 62
     7
370
    15
100
AcDbSpline
210
0.0
220
0.0
230
1.0
 70
     8
 71
     3
 72
     9
 73
     5
 74
     0
 42
0.000000001
 43
0.00000001
 40
1122.778696282304
 40
1122.778696282304
 40
1122.778696282304
 40
1122.778696282304
 40
1128.99755892
 40
1135.216013974917
 40
1135.216013974917
 40
1135.216013974917
 40
1135.216013974917
 10
2815.666641121872
 20
1673.591420213879
 30
0.0
 10
2815.776333364183
 20
1673.591420214326
 30
0.0
 10
2816.043764859918
 20
1673.591420214425
 30
0.0
 10
2816.371600981111
 20
1673.591420214482
 30
0.0
 10
2816.545220077491
 20
1673.591420214045
 30
0.0
  0
SPLINE
  5
187
330
1F
100
AcDbEntity
  8
0
  6
Continuous
 62
     7
370
    15
100
AcDbSpline
210
0.0
220
0.0
230
1.0
 70
    24
 71
     3
 72
    10
 73
     6
 74
     0
 42
0.000000001
 43
0.00000001
 40
0.0
 40
0.0
 40
0.0
 40
0.0
 40
0.4265894838182804
 40
0.7839226766618046
 40
1.0
 40
1.0
 40
1.0
 40
1.0
 10
3314.304439633562
 20
1673.591420214163
 30
0.0
 10
3314.477467530423
 20
1673.591420214164
 30
0.0
 10
3314.79543245265
 20
1673.591420214164
 30
0.0
 10
3315.017744022889
 20
1673.591420214164
 30
0.0
 10
3315.047022019057
 20
1673.591420214163
 30
0.0
 10
3315.05805479726
 20
1673.591420214163
 30
0.0
  0
SPLINE
  5
188
330
1F
100
AcDbEntity
  8
0
  6
Continuous
 62
     7
370
    15
100
AcDbSpline
210
0.0
220
0.0
230
1.0
 70
     8
 71
     3
 72
     9
 73
     5
 74
     0
 42
0.000000001
 43
0.00000001
 40
1110.341437548331
 40
1110.341437548331
 40
1110.341437548331
 40
1110.341437548331
 40
1116.559766454
 40
1122.7786962826
 40
1122.7786962826
 40
1122.7786962826
 40
1122.7786962826
 10
2815.17401850982
 20
1673.591420214087
 30
0.0
 10
2815.226543719807
 20
1673.591420214216
 30
0.0
 10
2815.352576180804
 20
1673.591420213984
 30
0.0
 10
2815.556947874352
 20
1673.59142021398
 30
0.0
 10
2815.6666411225
 20
1673.591420214329
 30
0.0
  0
SPLINE
  5
189
330
1F
100
AcDbEntity
  8
0
  6
Continuous
 62
     7
370
    15
100
AcDbSpline
210
0.0
220
0.0
230
1.0
 70
     8
 71
     3
 72
    23
 73
    19
 74
     0
 42
0.000000001
 43
0.00000001
 40
0.0
 40
0.0
 40
0.0
 40
0.0
 40
0.1248494951822247
 40
0.1418777495772811
 40
0.2488771905843131
 40
0.2501725411103064
 40
0.377145384969211
 40
0.3779989042222418
 40
0.5014317907247093
 40
0.50261780841966
 40
0.6239619540598775
 40
0.6252804855059743
 40
0.748013334206086
 40
0.7487803531797302
 40
0.8607504616261659
 40
0.8735783185417377
 40
0.9388853573421406
 40
1.0
 40
1.0
 40
1.0
 40
1.0
 10
3448.506849330994
 20
2268.083354563164
 30
0.0
 10
3448.726988273137
 20
2268.431423161274
 30
0.0
 10
3448.977152021577
 20
2268.826964923988
 30
0.0
 10
3449.432128318033
 20
2269.510192412289
 30
0.0
 10
3449.668214644857
 20
2269.849602307569
 30
0.0
 10
3450.121554386626
 20
2270.479617645063
 30
0.0
 10
3450.376939950032
 20
2270.820740492799
 30
0.0
 10
3450.900121318783
 20
2271.463612112791
 30
0.0
 10
3451.174189493533
 20
2271.774408083455
 30
0.0
 10
3451.757045231815
 20
2272.341174827084
 30
0.0
 10
3452.073202574641
 20
2272.605242107841
 30
0.0
 10
3452.764525118317
 20
2273.029278627718
 30
0.0
 10
3453.149335691557
 20
2273.193846165223
 30
0.0
 10
3453.902406360481
 20
2273.392265920169
 30
0.0
 10
3454.317099492471
 20
2273.443648157564
 30
0.0
 10
3454.945427994265
 20
2273.457588429057
 30
0.0
 10
3455.404763391699
 20
2273.439954264572
 30
0.0
 10
3455.818629477454
 20
2273.387485007547
 30
0.0
 10
3456.018700206203
 20
2273.362120371857
 30
0.0
  0
LINE
  5
18A
330
1F
100
AcDbEntity
  8
0
  6
Continuous
 62
     7
370
    15
100
AcDbLine
 10
3448.506849331
 20
2268.0833545632
 30
0.0
 11
3448.4980852317
 21
2268.0833545631
 31
0.0
  0
SPLINE
  5
18B
330
1F
100
AcDbEntity
  8
0
  6
Continuous
 62
     7
370
    15
100
AcDbSpline
210
0.0
220
0.0
230
1.0
 70
     8
 71
     3
 72
    13
 73
     9
 74
     0
 42
0.000000001
 43
0.00000001
 40
0.0
 40
0.0
 40
0.0
 40
0.0
 40
0.0055305662651639
 40
0.0276529578817498
 40
0.055386031586863
 40
0.0859865394186935
 40
0.0983512166138317
 40
0.1107605367517201
 40
0.1107605367517201
 40
0.1107605367517201
 40
0.1107605367517201
 10
3418.923860167184
 20
2206.744239475824
 30
0.0
 10
3419.385119651738
 20
2207.780998282282
 30
0.0
 10
3421.697398417454
 20
2212.962172754757
 30
0.0
 10
3426.37305915121
 20
2223.319562880651
 30
0.0
 10
3433.429116060051
 20
2238.243967008925
 30
0.0
 10
3439.729006169613
 20
2251.310119614041
 30
0.0
 10
3444.849248021957
 20
2261.453659714258
 30
0.0
 10
3447.298258606322
 20
2265.90955293624
 30
0.0
 10
3448.624170662084
 20
2268.083341873813
 30
0.0
  0
SPLINE
  5
18C
330
1F
100
AcDbEntity
  8
0
  6
Continuous
 62
     7
370
    15
100
AcDbSpline
210
0.0
220
0.0
230
1.0
 70
     8
 71
     3
 72
     9
 73
     5
 74
     0
 42
0.000000001
 43
0.00000001
 40
1097.903956562267
 40
1097.903956562267
 40
1097.903956562267
 40
1097.903956562267
 40
1104.121973989
 40
1110.341437536788
 40
1110.341437536788
 40
1110.341437536788
 40
1110.341437536788
 10
2815.054040200856
 20
1673.591420213847
 30
0.0
 10
2815.054161019546
 20
1673.591420214052
 30
0.0
 10
2815.053230497983
 20
1673.591420213965
 30
0.0
 10
2815.121482271571
 20
1673.591420213735
 30
0.0
 10
2815.174018510123
 20
1673.591420214481
 30
0.0
  0
SPLINE
  5
18D
330
1F
100
AcDbEntity
  8
0
  6
Continuous
 62
     7
370
    15
100
AcDbSpline
210
0.0
220
0.0
230
1.0
 70
     8
 71
     3
 72
    20
 73
    16
 74
     0
 42
0.000000001
 43
0.00000001
 40
0.1989378627832931
 40
0.1989378627832931
 40
0.1989378627832931
 40
0.1989378627832931
 40
0.2244402870275206
 40
0.2499427112014398
 40
0.2754451353753601
 40
0.3009475595492793
 40
0.3054671371645226
 40
0.3141461207205323
 40
0.4790468082847169
 40
0.5994672418156546
 40
0.6995995865737448
 40
0.799731931331835
 40
0.9129959860852024
 40
0.9899833863722067
 40
1.0
 40
1.0
 40
1.0
 40
1.0
 10
3315.088441954892
 20
1673.591420214164
 30
0.0
 10
3315.294349243781
 20
1678.815338007094
 30
0.0
 10
3315.730449447776
 20
1689.26136373271
 30
0.0
 10
3316.461662440685
 20
1704.924659346439
 30
0.0
 10
3317.274143926908
 20
1720.581898547585
 30
0.0
 10
3317.925826805915
 20
1731.940368259993
 30
0.0
 10
3318.406757165691
 20
1739.8553259213
 30
0.0
 10
3320.674436293846
 20
1776.275352426693
 30
0.0
 10
3325.590581900261
 20
1836.327942139678
 30
0.0
 10
3335.58046938575
 20
1914.729815986886
 30
0.0
 10
3346.792315483262
 20
1979.43471450891
 30
0.0
 10
3360.957263342975
 20
2042.212906277605
 30
0.0
 10
3377.526341815683
 20
2099.281449071485
 30
0.0
 10
3391.115432873445
 20
2137.989327690894
 30
0.0
 10
3397.456191821628
 20
2154.670660288773
 30
0.0
 10
3398.191841124892
 20
2156.589269119605
 30
0.0
  0
SPLINE
  5
18E
330
1F
100
AcDbEntity
  8
0
  6
Continuous
 62
     7
370
    15
100
AcDbSpline
210
0.0
220
0.0
230
1.0
 70
     8
 71
     3
 72
    10
 73
     6
 74
     0
 42
0.000000001
 43
0.00000001
 40
0.1107605367517201
 40
0.1107605367517201
 40
0.1107605367517201
 40
0.1107605367517201
 40
0.1396622634103148
 40
0.183928759025194
 40
0.1989378627832936
 40
0.1989378627832936
 40
0.1989378627832936
 40
0.1989378627832936
 10
3398.191841124892
 20
2156.589269119605
 30
0.0
 10
3400.314468179264
 20
2162.125182758084
 30
0.0
 10
3405.807224316421
 20
2176.100339544568
 30
0.0
 10
3412.763111853113
 20
2192.803467707184
 30
0.0
 10
3417.67207307502
 20
2203.930635994338
 30
0.0
 10
3418.923860167184
 20
2206.744239475824
 30
0.0
  0
SPLINE
  5
18F
330
1F
100
AcDbEntity
  8
0
  6
Continuous
 62
     7
370
    15
100
AcDbSpline
210
0.0
220
0.0
230
1.0
 70
     8
 71
     3
 72
     8
 73
     4
 74
     0
 42
0.000000001
 43
0.00000001
 40
0.0
 40
0.0
 40
0.0
 40
0.0
 40
0.5
 40
0.5
 40
0.5
 40
0.5
 10
3459.678248034418
 20
2274.733602130789
 30
0.0
 10
3459.692868972918
 20
2274.804929780164
 30
0.0
 10
3459.609490111168
 20
2275.045369573664
 30
0.0
 10
3459.432419638668
 20
2275.443783552163
 30
0.0
  0
LINE
  5
190
330
1F
100
AcDbEntity
  8
0
  6
Continuous
 62
     7
370
    15
100
AcDbLine
 10
3459.3858158109
 20
2274.9938324381
 30
0.0
 11
3459.3360776287
 21
2275.0380935742
 31
0.0
  0
SPLINE
  5
191
330
1F
100
AcDbEntity
  8
0
  6
Continuous
 62
     7
370
    15
100
AcDbSpline
210
0.0
220
0.0
230
1.0
 70
     8
 71
     3
 72
     9
 73
     5
 74
     0
 42
0.000000001
 43
0.00000001
 40
0.0
 40
0.0
 40
0.0
 40
0.0
 40
0.4027029072876486
 40
1.0
 40
1.0
 40
1.0
 40
1.0
 10
3459.656930263106
 20
2275.014417895169
 30
0.0
 10
3459.638466788327
 20
2275.077799843266
 30
0.0
 10
3459.592617914515
 20
2275.235191178045
 30
0.0
 10
3459.492324564845
 20
2275.365782021207
 30
0.0
 10
3459.432419638668
 20
2275.443783552163
 30
0.0
  0
SPLINE
  5
192
330
1F
100
AcDbEntity
  8
0
  6
Continuous
 62
     7
370
    15
100
AcDbSpline
210
0.0
220
0.0
230
1.0
 70
     8
 71
     3
 72
     9
 73
     5
 74
     0
 42
0.000000001
 43
0.00000001
 40
0.0
 40
0.0
 40
0.0
 40
0.0
 40
0.7388710996261426
 40
1.0
 40
1.0
 40
1.0
 40
1.0
 10
3456.013450872668
 20
2273.366870862164
 30
0.0
 10
3456.028107557429
 20
2273.080547018038
 30
0.0
 10
3456.047944149724
 20
2272.693031733885
 30
0.0
 10
3456.06655904726
 20
2272.786336083564
 30
0.0
 10
3456.071419934984
 20
2272.810700545796
 30
0.0
  0
LINE
  5
193
330
1F
100
AcDbEntity
  8
0
  6
Continuous
 62
     7
370
    15
100
AcDbLine
 10
3458.9963083443
 20
2275.9366531348
 30
0.0
 11
3457.7444340674
 21
2277.3520093327
 31
0.0
  0
SPLINE
  5
194
330
1F
100
AcDbEntity
  8
0
  6
Continuous
 62
     7
370
    15
100
AcDbSpline
210
0.0
220
0.0
230
1.0
 70
    24
 71
     3
 72
     9
 73
     5
 74
     0
 42
0.000000001
 43
0.00000001
 40
0.0
 40
0.0
 40
0.0
 40
0.0
 40
0.2743704548498537
 40
0.9999999999999999
 40
0.9999999999999999
 40
0.9999999999999999
 40
0.9999999999999999
 10
3315.373262588706
 20
1673.591420214163
 30
0.0
 10
3315.415549661316
 20
1673.591420214163
 30
0.0
 10
3315.569673663601
 20
1673.591420214164
 30
0.0
 10
3316.341011932214
 20
1673.591420214164
 30
0.0
 10
3316.900717769225
 20
1673.591420214164
 30
0.0
  0
LINE
  5
195
330
1F
100
AcDbEntity
  8
0
  6
Continuous
 62
     7
370
    15
100
AcDbLine
 10
3452.5045201947
 20
2261.6540164823
 30
0.0
 11
3451.5629281088
 21
2272.2396091509
 31
0.0
  0
SPLINE
  5
196
330
1F
100
AcDbEntity
  8
0
  6
Continuous
 62
     7
370
    15
100
AcDbSpline
210
0.0
220
0.0
230
1.0
 70
     8
 71
     3
 72
    66
 73
    62
 74
     0
 42
0.000000001
 43
0.00000001
 40
0.0
 40
0.0
 40
0.0
 40
0.0
 40
0.0134208384746036
 40
0.026841676949207
 40
0.0402625154238105
 40
0.0536833538984141
 40
0.0671041923730175
 40
0.080525030847621
 40
0.0872354500849227
 40
0.0939458693222245
 40
0.1006562885595262
 40
0.107366707796828
 40
0.107366707796828
 40
0.118196421448862
 40
0.1290261351008959
 40
0.1398558487529296
 40
0.1506855624049637
 40
0.161515276056998
 40
0.1723449897090317
 40
0.1831747033610658
 40
0.1940044170130999
 40
0.2156638443171677
 40
0.2373232716212357
 40
0.2589826989253037
 40
0.2806421262293712
 40
0.3023015535334395
 40
0.3239609808375075
 40
0.3672798354456432
 40
0.410598690053779
 40
0.453917544661915
 40
0.497236399270051
 40
0.5405552538781868
 40
0.5838741084863226
 40
0.6271929630944586
 40
0.6488523903985266
 40
0.6705118177025945
 40
0.6921712450066625
 40
0.7138306723107304
 40
0.7354900996147983
 40
0.7571495269188662
 40
0.7679792405709003
 40
0.7788089542229342
 40
0.7896386678749682
 40
0.8004683815270022
 40
0.8004683815270022
 40
0.8129391076815645
 40
0.8254098338361269
 40
0.8378805599906892
 40
0.8503512861452516
 40
0.8628220122998139
 40
0.8752927384543764
 40
0.8877634646089387
 40
0.9002341907635011
 40
0.9127049169180634
 40
0.9251756430726258
 40
0.9376463692271881
 40
0.9501170953817506
 40
0.962587821536313
 40
0.9750585476908753
 40
0.9875292738454376
 40
1.0
 40
1.0
 40
1.0
 40
1.0
 10
3324.033129756861
 20
1673.591420413355
 30
0.0
 10
3324.044252160813
 20
1676.322022554557
 30
0.0
 10
3324.065736753856
 20
1681.783255040287
 30
0.0
 10
3324.154940032668
 20
1689.973870604365
 30
0.0
 10
3324.29074620162
 20
1698.161402580162
 30
0.0
 10
3324.469492738406
 20
1706.344306149725
 30
0.0
 10
3324.694804456526
 20
1714.520721297302
 30
0.0
 10
3324.912961875421
 20
1721.327996346276
 30
0.0
 10
3325.116917158623
 20
1726.768693009669
 30
0.0
 10
3325.281007917845
 20
1730.846597394227
 30
0.0
 10
3325.452632596669
 20
1734.921827240701
 30
0.0
 10
3325.569678077472
 20
1737.636826496231
 30
0.0
 10
3325.730587821727
 20
1741.183615408289
 30
0.0
 10
3325.935619737928
 20
1745.562991497043
 30
0.0
 10
3326.277163004098
 20
1752.130143722045
 30
0.0
 10
3326.643392746243
 20
1758.695675765294
 30
0.0
 10
3327.035428700195
 20
1765.259461691623
 30
0.0
 10
3327.453464021336
 20
1771.821375452619
 30
0.0
 10
3327.8973594646
 20
1778.381332361563
 30
0.0
 10
3328.366975784918
 20
1784.939247731738
 30
0.0
 10
3329.027111649541
 20
1793.680307640642
 30
0.0
 10
3329.91540717843
 20
1804.601134181211
 30
0.0
 10
3331.081839897566
 20
1817.696665504722
 30
0.0
 10
3332.348227668664
 20
1830.782073130784
 30
0.0
 10
3333.714528757071
 20
1843.856664524078
 30
0.0
 10
3335.180701428135
 20
1856.919747149285
 30
0.0
 10
3337.269617863343
 20
1874.320822177548
 30
0.0
 10
3340.133657727419
 20
1896.039556113041
 30
0.0
 10
3343.985994425631
 20
1922.042498849403
 30
0.0
 10
3348.268485189093
 20
1947.977478669026
 30
0.0
 10
3353.006003607099
 20
1973.833400416672
 30
0.0
 10
3358.224232671312
 20
1999.597790121456
 30
0.0
 10
3363.984566186095
 20
2025.248624678061
 30
0.0
 10
3369.308936103239
 20
2046.502544234962
 30
0.0
 10
3373.911319958225
 20
2063.416734421079
 30
0.0
 10
3377.542497624818
 20
2076.053206649888
 30
0.0
 10
3381.355340876416
 20
2088.637156564237
 30
0.0
 10
3385.356238005415
 20
2101.163795906882
 30
0.0
 10
3389.544523185479
 20
2113.630305149452
 30
0.0
 10
3393.189276791616
 20
2123.967024083184
 30
0.0
 10
3396.196886112486
 20
2132.204008760377
 30
0.0
 10
3398.498692380378
 20
2138.365101573827
 30
0.0
 10
3400.846109999958
 20
2144.509377845403
 30
0.0
 10
3402.442768095557
 20
2148.593559789923
 30
0.0
 10
3404.169308119527
 20
2152.983805549516
 30
0.0
 10
3406.027292946165
 20
2157.680614034979
 30
0.0
 10
3408.878882655491
 20
2164.703383195448
 30
0.0
 10
3411.771448163123
 20
2171.712505838227
 30
0.0
 10
3414.709069909184
 20
2178.705896475105
 30
0.0
 10
3417.68706759616
 20
2185.684920306255
 30
0.0
 10
3420.704563734236
 20
2192.649512093491
 30
0.0
 10
3423.758008222296
 20
2199.600720340794
 30
0.0
 10
3426.845196242007
 20
2206.539099833975
 30
0.0
 10
3429.963922975041
 20
2213.46520535885
 30
0.0
 10
3433.112042973225
 20
2220.379633326414
 30
0.0
 10
3436.287410788386
 20
2227.282980147664
 30
0.0
 10
3439.487967975557
 20
2234.175840315986
 30
0.0
 10
3442.711656089768
 20
2241.058808324764
 30
0.0
 10
3445.956494475863
 20
2247.932532015559
 30
0.0
 10
3449.220502478686
 20
2254.797659229936
 30
0.0
 10
3451.408100682215
 20
2259.369090310601
 30
0.0
 10
3452.504337363346
 20
2261.653635491953
 30
0.0
  0
LINE
  5
197
330
1F
100
AcDbEntity
  8
0
  6
Continuous
 62
     7
370
    15
100
AcDbLine
 10
3316.900717344
 20
1673.5914202142
 30
0.0
 11
3321.9485528464
 21
1673.5914202142
 31
0.0
  0
SPLINE
  5
198
330
1F
100
AcDbEntity
  8
0
  6
Continuous
 62
     7
370
    15
100
AcDbSpline
210
0.0
220
0.0
230
1.0
 70
     8
 71
     3
 72
     8
 73
     4
 74
     0
 42
0.000000001
 43
0.00000001
 40
0.5510007369482298
 40
0.5510007369482298
 40
0.5510007369482298
 40
0.5510007369482298
 40
1.0
 40
1.0
 40
1.0
 40
1.0
 10
3321.948519583516
 20
1673.591420214164
 30
0.0
 10
3323.319634755454
 20
1673.591420214163
 30
0.0
 10
3324.033097566442
 20
1673.591420214163
 30
0.0
 10
3324.033129756861
 20
1673.591420413355
 30
0.0
  0
LINE
  5
199
330
1F
100
AcDbEntity
  8
0
  6
Continuous
 62
     7
370
    15
100
AcDbLine
 10
3452.5044381967
 20
2261.6541912354
 30
0.0
 11
3452.5044281282
 21
2261.6542876069
 31
0.0
  0
LINE
  5
19A
330
1F
100
AcDbEntity
  8
0
  6
Continuous
 62
     7
370
    15
100
AcDbLine
 10
3452.5044678491
 20
2261.6539074027
 30
0.0
 11
3452.5045201947
 21
2261.6540164823
 31
0.0
  0
SPLINE
  5
19B
330
1F
100
AcDbEntity
  8
0
  6
Continuous
 62
     7
370
    15
100
AcDbSpline
210
0.0
220
0.0
230
1.0
 70
     8
 71
     3
 72
    16
 73
    12
 74
     0
 42
0.000000001
 43
0.00000001
 40
0.0
 40
0.0
 40
0.0
 40
0.0
 40
0.0148323538310571
 40
0.0858804990829575
 40
0.1543693487415249
 40
0.2245744273930201
 40
0.3083813192035151
 40
0.4908398839505141
 40
0.6669306428300447
 40
0.8366512217538303
 40
0.9999999999999999
 40
0.9999999999999999
 40
0.9999999999999999
 40
0.9999999999999999
 10
3441.735429380321
 20
2297.61640884149
 30
0.0
 10
3441.692225905016
 20
2297.669567465534
 30
0.0
 10
3441.44207437387
 20
2297.977360093428
 30
0.0
 10
3440.956330375116
 20
2298.557350599475
 30
0.0
 10
3440.269760596849
 20
2299.362205652575
 30
0.0
 10
3439.495127124406
 20
2300.245362480694
 30
0.0
 10
3438.248273296227
 20
2301.624477500233
 30
0.0
 10
3436.42517557736
 20
2303.536343430942
 30
0.0
 10
3433.90079174415
 20
2305.975242462383
 30
0.0
 10
3431.143699264817
 20
2308.457937396873
 30
0.0
 10
3429.021407512985
 20
2310.190610588561
 30
0.0
 10
3427.980561943494
 20
2311.040373687056
 30
0.0
  0
LINE
  5
19C
330
1F
100
AcDbEntity
  8
0
  6
Continuous
 62
     7
370
    15
100
AcDbLine
 10
2701.9476810897
 20
2308.4082095818
 30
0.0
 11
2700.6066094109
 21
2307.2762487394
 31
0.0
  0
SPLINE
  5
19D
330
1F
100
AcDbEntity
  8
0
  6
Continuous
 62
     7
370
    15
100
AcDbSpline
210
0.0
220
0.0
230
1.0
 70
     8
 71
     3
 72
    15
 73
    11
 74
     0
 42
0.000000001
 43
0.00000001
 40
0.0
 40
0.0
 40
0.0
 40
0.0
 40
0.1513572350474273
 40
0.3012561717217307
 40
0.4497292015628463
 40
0.5968197940483079
 40
0.7425824127085795
 40
0.8870499830314779
 40
0.971719458782822
 40
1.0
 40
1.0
 40
1.0
 40
1.0
 10
3459.430621871541
 20
2275.445622722048
 30
0.0
 10
3459.291514915596
 20
2275.740255653656
 30
0.0
 10
3459.014641272952
 20
2276.326682784223
 30
0.0
 10
3458.195121632422
 20
2277.768604273193
 30
0.0
 10
3457.012543432926
 20
2279.655260385071
 30
0.0
 10
3455.381409033462
 20
2282.052465341535
 30
0.0
 10
3453.295749630474
 20
2284.967629732082
 30
0.0
 10
3450.939927860556
 20
2287.979192178095
 30
0.0
 10
3448.994508955792
 20
2290.257381422599
 30
0.0
 10
3447.92127949521
 20
2291.364713329617
 30
0.0
 10
3447.652563200958
 20
2291.641968229421
 30
0.0
  0
SPLINE
  5
19E
330
1F
100
AcDbEntity
  8
0
  6
Continuous
 62
     7
370
    15
100
AcDbSpline
210
0.0
220
0.0
230
1.0
 70
     8
 71
     3
 72
    28
 73
    24
 74
     0
 42
0.000000001
 43
0.00000001
 40
0.0
 40
0.0
 40
0.0
 40
0.0
 40
0.0481237243004845
 40
0.0961348928382724
 40
0.1431399673065083
 40
0.1932907385523781
 40
0.2443913415426798
 40
0.2964436682706293
 40
0.3494395834474216
 40
0.4000942603956573
 40
0.4482052383388576
 40
0.4905692589899862
 40
0.5339725874450093
 40
0.5784149157449247
 40
0.6238956593518856
 40
0.6704139018733544
 40
0.7113680410256209
 40
0.7498760997120657
 40
0.7947000460524218
 40
0.8421137138936132
 40
0.8921266395926043
 40
0.9447506444443118
 40
1.0
 40
1.0
 40
1.0
 40
1.0
 10
2690.552647271066
 20
2298.747347716712
 30
0.0
 10
2689.649892992938
 20
2297.963999536365
 30
0.0
 10
2687.846495873352
 20
2296.399135335446
 30
0.0
 10
2685.584519470824
 20
2294.223016748355
 30
0.0
 10
2683.546690182508
 20
2292.126954296081
 30
0.0
 10
2681.736818028966
 20
2290.116283303052
 30
0.0
 10
2680.106733965795
 20
2288.174912183214
 30
0.0
 10
2678.66057943088
 20
2286.343071535443
 30
0.0
 10
2677.396195943047
 20
2284.665545652286
 30
0.0
 10
2676.292994403576
 20
2283.176087567909
 30
0.0
 10
2675.372375920845
 20
2281.916842485915
 30
0.0
 10
2674.588190938578
 20
2280.828110211179
 30
0.0
 10
2673.904507472707
 20
2279.864068197202
 30
0.0
 10
2673.28429753054
 20
2278.973441111462
 30
0.0
 10
2672.729865623931
 20
2278.159886246302
 30
0.0
 10
2672.266187382191
 20
2277.461421792978
 30
0.0
 10
2671.892704456252
 20
2276.881532442123
 30
0.0
 10
2671.580305383445
 20
2276.380321461361
 30
0.0
 10
2671.310402778814
 20
2275.928729515253
 30
0.0
 10
2671.082645942663
 20
2275.524232139727
 30
0.0
 10
2670.911772464873
 20
2275.191816188145
 30
0.0
 10
2670.797186306998
 20
2274.93292949824
 30
0.0
 10
2670.774889262228
 20
2274.838730913055
 30
0.0
 10
2670.763469414458
 20
2274.790485348941
 30
0.0
  0
SPLINE
  5
19F
330
1F
100
AcDbEntity
  8
0
  6
Continuous
 62
     7
370
    15
100
AcDbSpline
210
0.0
220
0.0
230
1.0
 70
     8
 71
     3
 72
     9
 73
     5
 74
     0
 42
0.000000001
 43
0.00000001
 40
0.0
 40
0.0
 40
0.0
 40
0.0
 40
0.1823562372588484
 40
0.9999999999999999
 40
0.9999999999999999
 40
0.9999999999999999
 40
0.9999999999999999
 10
3427.522117075781
 20
2311.383509105925
 30
0.0
 10
3427.554025685693
 20
2311.368910406108
 30
0.0
 10
3427.729005222404
 20
2311.28885446705
 30
0.0
 10
3427.867636569233
 20
2311.152375455213
 30
0.0
 10
3427.980987625288
 20
2311.040784242439
 30
0.0
  0
LINE
  5
1A0
330
1F
100
AcDbEntity
  8
SKETCH
370
    15
100
AcDbLine
 10
3331.7781571536
 20
1673.5914578225
 30
0.0
 11
3568.4474371758
 21
1673.5914578225
 31
0.0
  0
LINE
  5
1A1
330
1F
100
AcDbEntity
  8
SKETCH
370
    15
100
AcDbLine
 10
3568.4474371758
 20
1673.5914578225
 30
0.0
 11
3568.4474371758
 21
2386.7891429886
 31
0.0
  0
LINE
  5
1A2
330
1F
100
AcDbEntity
  8
SKETCH
370
    15
100
AcDbLine
 10
3568.4474371758
 20
2386.7891429886
 30
0.0
 11
3225.9321869169
 21
2386.7891429886
 31
0.0
  0
LINE
  5
1A3
330
1F
100
AcDbEntity
  8
SKETCH
370
    15
100
AcDbLine
 10
2670.7656234466
 20
2296.3513603563
 30
0.0
 11
2670.7656234466
 21
2479.7404806796
 31
0.0
  0
LINE
  5
1A4
330
1F
100
AcDbEntity
  8
SKETCH
370
    15
100
AcDbLine
 10
2670.7656234466
 20
2479.7404806796
 30
0.0
 11
3459.3347306733
 21
2479.7404806796
 31
0.0
  0
LINE
  5
1A5
330
1F
100
AcDbEntity
  8
SKETCH
370
    15
100
AcDbLine
 10
3321.9485354216
 20
1663.2340535877
 30
0.0
 11
3321.9485354216
 21
1565.8951722203
 31
0.0
  0
LINE
  5
1A6
330
1F
100
AcDbEntity
  8
SKETCH
370
    15
100
AcDbLine
 10
3321.9485354216
 20
1565.8951722203
 30
0.0
 11
2816.545217871
 21
1565.8951722203
 31
0.0
  0
LINE
  5
1A7
330
1F
100
AcDbEntity
  8
SKETCH
370
    15
100
AcDbLine
 10
2816.545217871
 20
1565.8951722203
 30
0.0
 11
2816.545217871
 21
1663.2340535877
 31
0.0
  0
LINE
  5
1A8
330
1F
100
AcDbEntity
  8
SKETCH
370
    15
100
AcDbLine
 10
3459.3347306733
 20
2479.7404806796
 30
0.0
 11
3459.3347306733
 21
2296.3513603563
 31
0.0
  0
MTEXT
  5
1A9
330
1F
100
AcDbEntity
  8
SKETCH
100
AcDbMText
 10
3531.999340809
 20
1990.3692390509
 30
0.0
 40
26.4583333333
 41
0.0
 71
     1
 72
     1
  1
715
  7
SLDTEXTSTYLE0
 11
-3.491481338843133E-15
 21
1.0
 31
0.0
 73
     1
 44
1.0
  0
ENDSEC
  0
SECTION
  2
OBJECTS
  0
DICTIONARY
  5
C
330
0
100
AcDbDictionary
281
     1
  3
ACAD_GROUP
350
D
  3
ACAD_LAYOUT
350
1A
  3
ACAD_MLINESTYLE
350
17
  3
ACAD_PLOTSETTINGS
350
19
  3
ACAD_PLOTSTYLENAME
350
E
  3
ACAD_SCALELIST
350
47
  0
DICTIONARY
  5
D
102
{ACAD_REACTORS
330
C
102
}
330
C
100
AcDbDictionary
281
     1
  0
DICTIONARY
  5
1A
102
{ACAD_REACTORS
330
C
102
}
330
C
100
AcDbDictionary
281
     1
  3
Layout1
350
1E
  3
Layout2
350
26
  3
Model
350
22
  0
DICTIONARY
  5
17
102
{ACAD_REACTORS
330
C
102
}
330
C
100
AcDbDictionary
281
     1
  3
Standard
350
18
  0
DICTIONARY
  5
19
102
{ACAD_REACTORS
330
C
102
}
330
C
100
AcDbDictionary
281
     1
  0
ACDBDICTIONARYWDFLT
  5
E
102
{ACAD_REACTORS
330
C
102
}
330
C
100
AcDbDictionary
281
     1
  3
Normal
350
F
100
AcDbDictionaryWithDefault
340
F
  0
DICTIONARY
  5
47
102
{ACAD_REACTORS
330
C
102
}
330
C
100
AcDbDictionary
281
     1
  3
A0
350
48
  3
A1
350
49
  3
A2
350
4A
  3
A3
350
4B
  3
A4
350
4C
  3
A5
350
4D
  3
A6
350
4E
  3
A7
350
4F
  3
A8
350
50
  3
A9
350
51
  3
B0
350
52
  3
B1
350
53
  3
B2
350
54
  3
B3
350
55
  3
B4
350
56
  3
B5
350
57
  3
B6
350
58
  3
B7
350
59
  3
B8
350
5A
  3
B9
350
5B
  3
C0
350
5C
  3
C1
350
5D
  3
C2
350
5E
  3
C3
350
5F
  3
C4
350
60
  3
C5
350
61
  3
C6
350
62
  3
C7
350
63
  3
C8
350
64
  3
C9
350
65
  3
D0
350
66
  3
D1
350
67
  3
D2
350
68
  0
LAYOUT
  5
1E
102
{ACAD_REACTORS
330
1A
102
}
330
1A
100
AcDbPlotSettings
  1

  2
none_device
  4

  6

 40
0.0
 41
0.0
 42
0.0
 43
0.0
 44
0.0
 45
0.0
 46
0.0
 47
0.0
 48
0.0
 49
0.0
140
0.0
141
0.0
142
1.0
143
1.0
 70
   688
 72
     1
 73
     0
 74
     5
  7

 75
    16
147
1.0
148
0.0
149
0.0
100
AcDbLayout
  1
Layout1
 70
     1
 71
     1
 10
0.0
 20
0.0
 11
420.0
 21
297.0
 12
0.0
 22
0.0
 32
0.0
 14
1.0000000000E+20
 24
1.0000000000E+20
 34
1.0000000000E+20
 15
-1.0000000000E+20
 25
-1.0000000000E+20
 35
-1.0000000000E+20
146
0.0
 13
0.0
 23
0.0
 33
0.0
 16
1.0
 26
0.0
 36
0.0
 17
0.0
 27
1.0
 37
0.0
 76
     0
330
1B
  0
LAYOUT
  5
26
102
{ACAD_REACTORS
330
1A
102
}
330
1A
100
AcDbPlotSettings
  1

  2
none_device
  4

  6

 40
0.0
 41
0.0
 42
0.0
 43
0.0
 44
0.0
 45
0.0
 46
0.0
 47
0.0
 48
0.0
 49
0.0
140
0.0
141
0.0
142
1.0
143
1.0
 70
   688
 72
     1
 73
     0
 74
     5
  7

 75
    16
147
1.0
148
0.0
149
0.0
100
AcDbLayout
  1
Layout2
 70
     1
 71
     2
 10
0.0
 20
0.0
 11
0.0
 21
0.0
 12
0.0
 22
0.0
 32
0.0
 14
0.0
 24
0.0
 34
0.0
 15
0.0
 25
0.0
 35
0.0
146
0.0
 13
0.0
 23
0.0
 33
0.0
 16
1.0
 26
0.0
 36
0.0
 17
0.0
 27
1.0
 37
0.0
 76
     0
330
23
  0
LAYOUT
  5
22
102
{ACAD_REACTORS
330
1A
102
}
330
1A
100
AcDbPlotSettings
  1

  2
none_device
  4
Letter_(8.50_x_11.00_Inches)
  6

 40
6.35
 41
6.35
 42
6.35000508
 43
6.35000508
 44
215.9
 45
279.4
 46
0.0
 47
0.0
 48
0.0
 49
0.0
140
0.0
141
0.0
142
1.0
143
1.0
 70
  1712
 72
     1
 73
     0
 74
     0
  7

 75
     0
147
1.0
148
0.0
149
0.0
100
AcDbLayout
  1
Model
 70
     1
 71
     0
 10
0.0
 20
0.0
 11
4000.0
 21
4000.0
 12
0.0
 22
0.0
 32
0.0
 14
0.0
 24
0.0
 34
0.0
 15
4000.0
 25
4000.0
 35
0.0
146
0.0
 13
0.0
 23
0.0
 33
0.0
 16
1.0
 26
0.0
 36
0.0
 17
0.0
 27
1.0
 37
0.0
 76
     0
330
1F
331
29
  0
MLINESTYLE
  5
18
102
{ACAD_REACTORS
330
17
102
}
330
17
100
AcDbMlineStyle
  2
Standard
 70
     0
  3

 62
   256
 51
90.0
 52
90.0
 71
     2
 49
0.5
 62
   256
  6
BYLAYER
 49
-0.5
 62
   256
  6
BYLAYER
  0
ACDBPLACEHOLDER
  5
F
102
{ACAD_REACTORS
330
E
102
}
330
E
  0
SCALE
  5
48
102
{ACAD_REACTORS
330
47
102
}
330
47
100
AcDbScale
 70
     0
300
1:1
140
1.0
141
1.0
290
     1
  0
SCALE
  5
49
102
{ACAD_REACTORS
330
47
102
}
330
47
100
AcDbScale
 70
     0
300
1:2
140
1.0
141
2.0
290
     0
  0
SCALE
  5
4A
102
{ACAD_REACTORS
330
47
102
}
330
47
100
AcDbScale
 70
     0
300
1:4
140
1.0
141
4.0
290
     0
  0
SCALE
  5
4B
102
{ACAD_REACTORS
330
47
102
}
330
47
100
AcDbScale
 70
     0
300
1:5
140
1.0
141
5.0
290
     0
  0
SCALE
  5
4C
102
{ACAD_REACTORS
330
47
102
}
330
47
100
AcDbScale
 70
     0
300
1:8
140
1.0
141
8.0
290
     0
  0
SCALE
  5
4D
102
{ACAD_REACTORS
330
47
102
}
330
47
100
AcDbScale
 70
     0
300
1:10
140
1.0
141
10.0
290
     0
  0
SCALE
  5
4E
102
{ACAD_REACTORS
330
47
102
}
330
47
100
AcDbScale
 70
     0
300
1:16
140
1.0
141
16.0
290
     0
  0
SCALE
  5
4F
102
{ACAD_REACTORS
330
47
102
}
330
47
100
AcDbScale
 70
     0
300
1:20
140
1.0
141
20.0
290
     0
  0
SCALE
  5
50
102
{ACAD_REACTORS
330
47
102
}
330
47
100
AcDbScale
 70
     0
300
1:30
140
1.0
141
30.0
290
     0
  0
SCALE
  5
51
102
{ACAD_REACTORS
330
47
102
}
330
47
100
AcDbScale
 70
     0
300
1:40
140
1.0
141
40.0
290
     0
  0
SCALE
  5
52
102
{ACAD_REACTORS
330
47
102
}
330
47
100
AcDbScale
 70
     0
300
1:50
140
1.0
141
50.0
290
     0
  0
SCALE
  5
53
102
{ACAD_REACTORS
330
47
102
}
330
47
100
AcDbScale
 70
     0
300
1:100
140
1.0
141
100.0
290
     0
  0
SCALE
  5
54
102
{ACAD_REACTORS
330
47
102
}
330
47
100
AcDbScale
 70
     0
300
2:1
140
2.0
141
1.0
290
     0
  0
SCALE
  5
55
102
{ACAD_REACTORS
330
47
102
}
330
47
100
AcDbScale
 70
     0
300
4:1
140
4.0
141
1.0
290
     0
  0
SCALE
  5
56
102
{ACAD_REACTORS
330
47
102
}
330
47
100
AcDbScale
 70
     0
300
8:1
140
8.0
141
1.0
290
     0
  0
SCALE
  5
57
102
{ACAD_REACTORS
330
47
102
}
330
47
100
AcDbScale
 70
     0
300
10:1
140
10.0
141
1.0
290
     0
  0
SCALE
  5
58
102
{ACAD_REACTORS
330
47
102
}
330
47
100
AcDbScale
 70
     0
300
100:1
140
100.0
141
1.0
290
     0
  0
SCALE
  5
59
102
{ACAD_REACTORS
330
47
102
}
330
47
100
AcDbScale
 70
     0
300
1/128" = 1'-0"
140
0.0078125
141
12.0
290
     0
  0
SCALE
  5
5A
102
{ACAD_REACTORS
330
47
102
}
330
47
100
AcDbScale
 70
     0
300
1/64" = 1'-0"
140
0.015625
141
12.0
290
     0
  0
SCALE
  5
5B
102
{ACAD_REACTORS
330
47
102
}
330
47
100
AcDbScale
 70
     0
300
1/32" = 1'-0"
140
0.03125
141
12.0
290
     0
  0
SCALE
  5
5C
102
{ACAD_REACTORS
330
47
102
}
330
47
100
AcDbScale
 70
     0
300
1/16" = 1'-0"
140
0.0625
141
12.0
290
     0
  0
SCALE
  5
5D
102
{ACAD_REACTORS
330
47
102
}
330
47
100
AcDbScale
 70
     0
300
3/32" = 1'-0"
140
0.09375
141
12.0
290
     0
  0
SCALE
  5
5E
102
{ACAD_REACTORS
330
47
102
}
330
47
100
AcDbScale
 70
     0
300
1/8" = 1'-0"
140
0.125
141
12.0
290
     0
  0
SCALE
  5
5F
102
{ACAD_REACTORS
330
47
102
}
330
47
100
AcDbScale
 70
     0
300
3/16" = 1'-0"
140
0.1875
141
12.0
290
     0
  0
SCALE
  5
60
102
{ACAD_REACTORS
330
47
102
}
330
47
100
AcDbScale
 70
     0
300
1/4" = 1'-0"
140
0.25
141
12.0
290
     0
  0
SCALE
  5
61
102
{ACAD_REACTORS
330
47
102
}
330
47
100
AcDbScale
 70
     0
300
3/8" = 1'-0"
140
0.375
141
12.0
290
     0
  0
SCALE
  5
62
102
{ACAD_REACTORS
330
47
102
}
330
47
100
AcDbScale
 70
     0
300
1/2" = 1'-0"
140
0.5
141
12.0
290
     0
  0
SCALE
  5
63
102
{ACAD_REACTORS
330
47
102
}
330
47
100
AcDbScale
 70
     0
300
3/4" = 1'-0"
140
0.75
141
12.0
290
     0
  0
SCALE
  5
64
102
{ACAD_REACTORS
330
47
102
}
330
47
100
AcDbScale
 70
     0
300
1" = 1'-0"
140
1.0
141
12.0
290
     0
  0
SCALE
  5
65
102
{ACAD_REACTORS
330
47
102
}
330
47
100
AcDbScale
 70
     0
300
1-1/2" = 1'-0"
140
1.5
141
12.0
290
     0
  0
SCALE
  5
66
102
{ACAD_REACTORS
330
47
102
}
330
47
100
AcDbScale
 70
     0
300
3" = 1'-0"
140
3.0
141
12.0
290
     0
  0
SCALE
  5
67
102
{ACAD_REACTORS
330
47
102
}
330
47
100
AcDbScale
 70
     0
300
6" = 1'-0"
140
6.0
141
12.0
290
     0
  0
SCALE
  5
68
102
{ACAD_REACTORS
330
47
102
}
330
47
100
AcDbScale
 70
     0
300
1'-0" = 1'-0"
140
12.0
141
12.0
290
     0
  0
ENDSEC
  0
EOF
